Rise Against - Anywhere But Here Chords & Tabs

 

Anywhere But Here Chords & Tabs

Rise Against Chords & Tabs

Version: 3 Type: Tab 0 ratings
1 star 2 stars 3 stars 4 stars 5 stars
comments

Anywhere But Here Tab

   
-------------------------------------------------------------------------------
			     Anywhere But Here - Rise Against
-------------------------------------------------------------------------------
Tabbed by: FRGuitarist1027
Email:FRGuitarist1027@yahoo.com

Tuning: D A D G B e



Fairly easy song by an amazing band, Rise Against.
This is also my first tab.

INTRO
e|------------------------------------|
B|------------------------------------|
G|-12-12-12--10--12--13-13-13--8--6---|
D|-xx-xx-xx--xx--xx--xx-xx-xx--x--x---| x3
A|-10-10-10--8---10--11-11-11--6--4---|
E|------------------------------------|

e|-------------------------------------------------|
B|-------------------------------------------------|
G|-15-15-15-15-15-15--13-13--12-12-12--10--8-8-8---|
D|-xx-xx-xx-xx-xx-xx--xx-xx--xx-xx-xx--x---x-x-x---| x1
A|-13-13-13-13-13-13--11-11--10-10-10--8---6-6-6---|
E|-------------------------------------------------|

VERSE 1
e|----------------------------------------------------------------------|
B|----------------------------------------------------------------------|
G|-8-8-8-8-8-8-8-8-------------------8-8-8-8-8-8-8-8--------------------|
D|-8-8-8-8-8-8-8-8--6-6-6-6-6-6-6-6--8-8-8-8-8-8-8-8--8-8-8-8-8-8-8-8---| x4
A|-6-6-6-6-6-6-6-6--6-6-6-6-6-6-6-6--6-6-6-6-6-6-6-6--8-8-8-8-8-8-8-8---|
E|------------------6-6-6-6-6-6-6-6-------------------8-8-8-8-8-8-8-8---|


PRE CHORUS
e|----------------------|
B|----------------------|
G|-8--------------------|
D|-8----8~----6----8~---|
A|-6----8~----6----8~---|
E|------8~----6----8~---|

[ Tab from: http://www.guitartabs.cc/tabs/r/rise_against/anywhere_but_here_tab_ver_3.html ]
CHORUS  (Same as Verse 1)
e|----------------------------------------------------------------------|
B|----------------------------------------------------------------------|
G|-8-8-8-8-8-8-8-8-------------------8-8-8-8-8-8-8-8--------------------|
D|-8-8-8-8-8-8-8-8--6-6-6-6-6-6-6-6--8-8-8-8-8-8-8-8--8-8-8-8-8-8-8-8---| x2
A|-6-6-6-6-6-6-6-6--6-6-6-6-6-6-6-6--6-6-6-6-6-6-6-6--8-8-8-8-8-8-8-8---|
E|------------------6-6-6-6-6-6-6-6-------------------8-8-8-8-8-8-8-8---|


Verse 2
e|-------------------------|
B|-------------------------|
G|-------------------------|
D|-10~----6~----1~----8~---| x4
A|-10~----6~----1~----8~---|
E|-10~----6~----1~----8~---|


PRE CHORUS
e|----------------------|
B|----------------------|
G|-8--------------------|
D|-8----8~----6----8~---|
A|-6----8~----6----8~---|
E|------8~----6----8~---|

CHORUS
e|----------------------------------------------------------------------|
B|----------------------------------------------------------------------|
G|-8-8-8-8-8-8-8-8-------------------8-8-8-8-8-8-8-8--------------------|
D|-8-8-8-8-8-8-8-8--6-6-6-6-6-6-6-6--8-8-8-8-8-8-8-8--8-8-8-8-8-8-8-8---| x2
A|-6-6-6-6-6-6-6-6--6-6-6-6-6-6-6-6--6-6-6-6-6-6-6-6--8-8-8-8-8-8-8-8---|
E|------------------6-6-6-6-6-6-6-6-------------------8-8-8-8-8-8-8-8---|

Verse 3
e|-----------------------|
B|-----------------------|
G|------8-------8----8---| x16
D|-8-10----8-10----8-----|
A|-----------------------|
E|-----------------------|

CHORUS
e|----------------------------------------------------------------------|
B|----------------------------------------------------------------------|
G|-8-8-8-8-8-8-8-8-------------------8-8-8-8-8-8-8-8--------------------|
D|-8-8-8-8-8-8-8-8--6-6-6-6-6-6-6-6--8-8-8-8-8-8-8-8--8-8-8-8-8-8-8-8---| x2
A|-6-6-6-6-6-6-6-6--6-6-6-6-6-6-6-6--6-6-6-6-6-6-6-6--8-8-8-8-8-8-8-8---|
E|------------------6-6-6-6-6-6-6-6-------------------8-8-8-8-8-8-8-8---|
 
e|----------------------|
B|----------------------|
G|----------------------|
D|-66666666--88888888---|x1
A|-66666666--88888888---|
E|-66666666--88888888---|


Verse 4
e|-----------------------|
B|-----------------------|
G|------8-------8----8---| x8
D|-8-10----8-10----8-----|
A|-----------------------|
E|-----------------------|

ENDING CHORD
e|---|
A|---|
D|-4-|
G|-6-|
B|-6-|
E|---|



| /  slide up
| \  slide down
| h  hammer-on
| p  pull-off
| ~  vibrato
| +  harmonic
| x  Mute note
===============================================================================
Comments