Rise Against - Anywhere But Here Chords & Tabs

 

Anywhere But Here Chords & Tabs

Rise Against Chords & Tabs

Version: 2 Type: Tab 0 ratings
1 star 2 stars 3 stars 4 stars 5 stars
comments

Anywhere But Here Tab

   
Song: Anywhere But Here
Artist: Rise Against
Album: Siren Sound Of The Counter Culture


Tabbed by atticus144

Cool Song...Played in drop D.

Intro. Guitar 1 (Distortion)
e|--------------------------------------------|
B|--------------------------------------------|
G|--------------------------------------------|
D|-12-12-1212--1010-10-1212--88-8-88--77-7-88-|x3
A|-xx-xx-xxxx--xxxx-xx-xxxx--xx-x-xx--xx-x-xx-|
D|-10-10-1010--8-8--8--1010--66-6-66--55-5-66-|

e|-----------------------------------------------|
B|-----------------------------------------------|
G|-10-10-10-10-10-10-13-13-12-12-12-10-8-8-10-10-|
D|-xx-xx-xx-xx-xx-xx-xx-xx-xx-xx-xx-xx-x-x-xx-xx-|
A|-8--8--8--8--8--8--11-11-10-10-10-8--6-6-8--8--|
D|-----------------------------------------------|

Intro. Guitar 2 (Distortion)
e|-------------------------------------|
B|-------------------------------------|
G|-------------------------------------|
D|-1-1-11-1-1-1-11-1-6-6-66-6-6-6-66-6-|x3
A|-1-1-11-1-1-1-11-1-6-6-66-6-6-6-66-6-|
D|-1-1-11-1-1-1-11-1-6-6-66-6-6-6-66-6-|

e|---------------------------------|
B|---------------------------------|
G|---------------------------------|
D|-8-8-8-8-8-8-8-8-8-8-8-8-8-8-8-8-|
A|-8-8-8-8-8-8-8-8-8-8-8-8-8-8-8-8-|
D|-8-8-8-8-8-8-8-8-8-8-8-8-8-8-8-8-|

Verse 1. Guitar 1 (Distortion)
e|----------------------------------|
B|----------------------------------|
G|-88888888888888888888888888888888-|
D|-xxxxxxxxxxxxxxxxxxxxxxxxxxxxxxxx-|Repeat During The Verse.
A|-66666666666666666666666666666666-|
D|----------------------------------|

Verse 1. Guitar 2 (Distortion)
e|-------------------------------------------------------------------------------------|
B|-------------------------------------------------------------------------------------|
G|-------------------------------------------------------------------------------------|
D|-10101010101010101010101010101010-6666666666666666-1111111111111111-8888888888888888-|x4
A|-10101010101010101010101010101010-6666666666666666-1111111111111111-8888888888888888-|
D|-10101010101010101010101010101010-6666666666666666-1111111111111111-8888888888888888-|

Pre-Chorus.(Distortion)
e|------------------------|
B|------------------------|
G|------------------------|
D|-10----8~----6----8~----|
A|-10----8~----6----8~----|
D|-10----8~----6----8~----|

Chorus. Guitar 1 (Distortion)
e|--------------------------------------------|
B|--------------------------------------------|
G|--------------------------------------------|
D|-12-12-1212--1010-10-1212--88-8-88--77-7-88-|x3
A|-xx-xx-xxxx--xxxx-xx-xxxx--xx-x-xx--xx-x-xx-|
D|-10-10-1010--8-8--8--1010--66-6-66--55-5-66-|

e|-----------------------------------------------|
B|-----------------------------------------------|
G|-10-10-10-10-10-10-13-13-12-12-12-10-8-8-10-10-|
D|-xx-xx-xx-xx-xx-xx-xx-xx-xx-xx-xx-xx-x-x-xx-xx-|
A|-8--8--8--8--8--8--11-11-10-10-10-8--6-6-8--8--|
D|-----------------------------------------------|

Chorus. Guitar 2 (Distortion)
e|-------------------------------------|
B|-------------------------------------|
G|-------------------------------------|
D|-1-1-11-1-1-1-11-1-6-6-66-6-6-6-66-6-|x3
A|-1-1-11-1-1-1-11-1-6-6-66-6-6-6-66-6-|
D|-1-1-11-1-1-1-11-1-6-6-66-6-6-6-66-6-|

e|---------------------------------|
B|---------------------------------|
G|---------------------------------|
D|-8-8-8-8-8-8-8-8-8-8-8-8-8-8-8-8-|
A|-8-8-8-8-8-8-8-8-8-8-8-8-8-8-8-8-|
D|-8-8-8-8-8-8-8-8-8-8-8-8-8-8-8-8-|

Verse 2. (Distortion)
e|--------------------------|
B|--------------------------|
G|--------------------------|
D|-10~----6~----1~----8~----|x2
A|-10~----6~----1~----8~----|
D|-10~----6~----1~----8~----|
[ Tab from: http://www.guitartabs.cc/tabs/r/rise_against/anywhere_but_here_tab_ver_2.html ]
e|-------------------------------------------------------------------------------------|
B|-------------------------------------------------------------------------------------|
G|-------------------------------------------------------------------------------------|
D|-10101010101010101010101010101010-6666666666666666-1111111111111111-8888888888888888-|x2
A|-10101010101010101010101010101010-6666666666666666-1111111111111111-8888888888888888-|
D|-10101010101010101010101010101010-6666666666666666-1111111111111111-8888888888888888-|

Pre-Chorus.(Distortion)
e|------------------------|
B|------------------------|
G|------------------------|
D|-10----8~----6----8~----|
A|-10----8~----6----8~----|
D|-10----8~----6----8~----|

Chorus. Guitar 1 (Distortion)
e|--------------------------------------------|
B|--------------------------------------------|
G|--------------------------------------------|
D|-12-12-1212--1010-10-1212--88-8-88--77-7-88-|x3
A|-xx-xx-xxxx--xxxx-xx-xxxx--xx-x-xx--xx-x-xx-|
D|-10-10-1010--8-8--8--1010--66-6-66--55-5-66-|

e|-----------------------------------------------|
B|-----------------------------------------------|
G|-10-10-10-10-10-10-13-13-12-12-12-10-8-8-10-10-|
D|-xx-xx-xx-xx-xx-xx-xx-xx-xx-xx-xx-xx-x-x-xx-xx-|
A|-8--8--8--8--8--8--11-11-10-10-10-8--6-6-8--8--|
D|-----------------------------------------------|

Chorus. Guitar 2 (Distortion)
e|-------------------------------------|
B|-------------------------------------|
G|-------------------------------------|
D|-1-1-11-1-1-1-11-1-6-6-66-6-6-6-66-6-|x3
A|-1-1-11-1-1-1-11-1-6-6-66-6-6-6-66-6-|
D|-1-1-11-1-1-1-11-1-6-6-66-6-6-6-66-6-|

e|---------------------------------|
B|---------------------------------|
G|---------------------------------|
D|-8-8-8-8-8-8-8-8-8-8-8-8-8-8-8-8-|
A|-8-8-8-8-8-8-8-8-8-8-8-8-8-8-8-8-|
D|-8-8-8-8-8-8-8-8-8-8-8-8-8-8-8-8-|

Verse 3. Guitar 1 (Distortion)
e|-----------------|
B|-----4-----4---4-|
G|-3-5---3-5---3---|
D|-----------------|Repeat Throughout The Verse.
A|-----------------|
D|-----------------|

Verse 3. Guitar 2 (Distortion)
e|--------------------------|
B|--------------------------|
G|--------------------------|
D|-10~----8~----6~----8~----|x2
A|-10~----8~----6~----8~----|
D|-10~----8~----6~----8~----|

Chorus. Guitar 1 (Distortion)
e|--------------------------------------------|
B|--------------------------------------------|
G|--------------------------------------------|
D|-12-12-1212--1010-10-1212--88-8-88--77-7-88-|x3
A|-xx-xx-xxxx--xxxx-xx-xxxx--xx-x-xx--xx-x-xx-|
D|-10-10-1010--8-8--8--1010--66-6-66--55-5-66-|

e|-----------------------------------------------|
B|-----------------------------------------------|
G|-10-10-10-10-10-10-13-13-12-12-12-10-8-8-10-10-|
D|-xx-xx-xx-xx-xx-xx-xx-xx-xx-xx-xx-xx-x-x-xx-xx-|
A|-8--8--8--8--8--8--11-11-10-10-10-8--6-6-8--8--|
D|-----------------------------------------------|

Chorus. Guitar 2 (Distortion)
e|-------------------------------------|
B|-------------------------------------|
G|-------------------------------------|
D|-1-1-11-1-1-1-11-1-6-6-66-6-6-6-66-6-|x3
A|-1-1-11-1-1-1-11-1-6-6-66-6-6-6-66-6-|
D|-1-1-11-1-1-1-11-1-6-6-66-6-6-6-66-6-|

e|------------------------------------------------------------------|
B|------------------------------------------------------------------|
G|------------------------------------------------------------------|
D|-8-8-8-8-8-8-8-8-8-8-8-8-8-8-8-8--6-6-6-6-6-6-6-6-6-6-6-6-6-6-6-6-|
A|-8-8-8-8-8-8-8-8-8-8-8-8-8-8-8-8--6-6-6-6-6-6-6-6-6-6-6-6-6-6-6-6-|
D|-8-8-8-8-8-8-8-8-8-8-8-8-8-8-8-8--6-6-6-6-6-6-6-6-6-6-6-6-6-6-6-6-|


Verse 4. Guitar 1 (Distortion)
e|-----------------|
B|-----4-----4---4-|
G|-3-5---3-5---3---|
D|-----------------|Repeat Throughout The Verse.
A|-----------------|
D|-----------------|

Verse 4. Guitar 2 (Distortion)
e|--------------------------|
B|--------------------------|
G|--------------------------|
D|-10~----8~----6~----8~----|x2
A|-10~----8~----6~----8~----|
D|-10~----8~----6~----8~----|
Comments