Rise Against - Anywhere But Here Chords & Tabs

 

Anywhere But Here Chords & Tabs

Rise Against Chords & Tabs

Version: 1 Type: Tab 0 ratings
1 star 2 stars 3 stars 4 stars 5 stars
comments

Anywhere But Here Tab

Band- Rise Against
Song- Anywhere But Here

Intro:
         3 times
E|------------------------------|---------------------------||
B|--8-8-8--6-6-8----------------|--------9--8---------------||
G|--8-8-8--8-8-8---8-8-8--7-7-8-|-------------10-8-10-------||
D|-----------------6-6-6--6-6-6-|--8~-----------------------||
A|------------------------------|---------------------------||
E|------------------------------|---------------------------||
                                  ~:let ring

  Verse:
                     4 times
E|----------------------------------------------------------||
B|----------------------------------------------------------||
G|-8--8--8--8--8--8--8--8-----------------------------------||
D|-8--8--8--8--8--8--8--8-------6--6--6--6--6--6--6--6------||
A|-6--6--6--6--6--6--6--6-------6--6--6--6--6--6--6--6------||
E|------------------------------4--4--4--4--4--4--4--4------||
  "We've been alright up until now"              "But the" 

E|----------------------------------------------------------------||
B|----------------------------------------------------------------||
G|-8--8--8--8--8--8--8--8-----------------------------------------||
D|-8--8--8--8--8--8--8--8-----8--8--8--8--8--8--8--8--------------||
A|-6--6--6--6--6--6--6--6-----8--8--8--8--8--8--8--8--------------||
E|----------------------------6--6--6--6--6--6--6--6--------------||
  "Air that we breath is    about    to    runout." 


[ Tab from: http://www.guitartabs.cc/tabs/r/rise_against/anywhere_but_here_tab.html ]
Pre Chorus:

E|------------------------------------------------||
B|------------------------------------------------||
G|-8#---------------------------------------------||
D|-8#---8~------6#-----------8~-------------------||
A|-6#---8~------6#-----------8~-------------------||
E|------6~------4#-----------6~-------------------||
  "Destination anywhere but here away from you"

                                                 #:Muffle
Chorus:

E|----------------------------------------------------------||
B|----------------------------------------------------------||
G|-8--8--8--8--8--8--8--8-----------------------------------||
D|-8--8--8--8--8--8--8--8---6--6--6--6--6--6--6--6----------||
A|-6--6--6--6--6--6--6--6---6--6--6--6--6--6--6--6--------- ||     
E|--------------------------4--4--4--4--4--4--4--4----------||
  "Now   im   on   my      way   to  the  other  side"
   "I'll    forget     everything  i  left  behind"
      "These         empty           rooms"

E|----------------------------------------------------------||
B|----------------------------------------------------------||
G|-8--8--8--8--8--8--8--8-----------------------------------||
D|-8--8--8--8--8--8--8--8-----8--8--8--8--8--8--8--8--------||
A|-6--6--6--6--6--6--6--6-----8--8--8--8--8--8--8--8--------||
E|----------------------------6--6--6--6--6--6--6--6--------||
     "Are still filled  with          you"

The bridge is basically the same as the chorus. 
Comments