Rise Against - Anywhere But Here Acoustic Chords & Tabs

 

Anywhere But Here Acoustic Chords & Tabs

Rise Against Chords & Tabs

Version: 1 Type: Tab 0 ratings
1 star 2 stars 3 stars 4 stars 5 stars
comments

Anywhere But Here Acoustic Tab

   
-------------------------------------------------------------------------------
			     Anywhere But Here - Rise Against
-------------------------------------------------------------------------------
Tabbed by: Xaur Kun
Email: alan_c_pk@hotmail.co.uk

I dont have the second guitar part for the intro but i think the rest is ok ;) Let 
me know if anyone knows the second guitar part

Tuning: 1/2 step down

guitar 1
e|--------------------------------------------------|
B|--------------------------------------------------|
G|-------------------------2--2--2-2--2-2-2-2-2-2---| x3
D|-2--2--2-2--2-2-2-2-2-2--2--2--2-2--2-2-2-2-2-2---|
A|-2--2--2-2--2-2-2-2-2-2--0--0--0-0--0-0-0-0-0-0---|
E|-0--0--0-0--0-0-0-0-0-0---------------------------|

e|---------------------------------|
B|---------------------------------|
G|-4-4-4-4-4-4-4-4-4-4-4-4-4-4-4-4-| (play with all downstrokes for required
D|-4-4-4-4-4-4-4-4-4-4-4-4-4-4-4-4-|  effect)
A|-2-2-2-2-2-2-2-2-2-2-2-2-2-2-2-2-|
E|---------------------------------|
[ Tab from: http://www.guitartabs.cc/tabs/r/rise_against/anywhere_but_here_acoustic_tab.html ]
verse
guitar 1 & 2
e|---------------------|
B|---------------------|   (guitar 1 just plays each chord with a single)  
G|--6---------9--------| x4(downstroke and guitar 2 plays with the same) 
D|--6----7----9----9---|   (pattern as in intro)
A|--4----7----7----9---|
E|-------5---------7---|

pre chorus
e|----------------------------------------------|
B|----------------------------------------------|
G|--6-6-6-6-6-6-6-6-4--------2-2-2-2-2-2-2-2-4--|
D|--6-6-6-6-6-6-6-6-4--------2-2-2-2-2-2-2-2-4--|
A|--4-4-4-4-4-4-4-4-2--------0-0-0-0-0-0-0-0-2--|
E|----------------------------------------------|
      * * * * * * *            * * * * * * *

chorus
 Same as intro


Repeat: verse , pre chorus, chorus


3rd verse

e|---------------------|
B|---------------------|     (guitar 1 just plays each chord with a single 
G|--6---------9--------| x4 downstroke) 
D|--6----7----9----9---|    
A|--4----7----7----9---|
E|-------5---------7---|

guitar 2
e|-------------------|
B|--0-4-5-0-4-5-0-5--|
G|-------------------|  x4
D|-------------------|
A|-------------------|
E|-------------------|

Chorus
outro (same as verse 3)


Enjoy. Anything ave missed please email me :D

RISE AGAINST

************************************

| /   slide up
| \   slide down
| h   hammer-on
| p   pull-off
| ~   vibrato
| +   harmonic
| x   Mute note
| b   Bend
| pb  Pre-bend
| br  Bend release
| pbr Pre-bend release
| brb Bend release bend

************************************
Comments