Rise Against - Anyway You Want It Chords & Tabs

 

Anyway You Want It Chords & Tabs

Rise Against Chords & Tabs

Version: 5 Type: Tab 0 ratings
1 star 2 stars 3 stars 4 stars 5 stars
comments

Anyway You Want It Tab

Intro:

Eb-------------------------------------------------------|
Bb-------------------------------------------------------|
Gb-------------------------------------------------------|
Db----5--44--22--------------------020-------------------|
Ab----5--44--22--------323232----3-----320---------------|
Eb----3--22--00---------------3-------------3------------|

Verse:

Eb---------------------------------------------------------|
Bb---------------------------------------------------------|
Gb---------------------------------------------------------|     X4
Db----5xxxxx----44xxxxx----22xxxxx-------------------------|
Ab----5xxxxx----44xxxxx----22xxxxx----323232---------------|
Eb----3xxxxx----22xxxxx----00xxxxx------------03-----------|

Chorus:

Eb-------------------------------------------------------|
Bb-------------------------------------------------------|
Gb-------------------------------------------------------|
Db----555555--444444--000000-----------------------------|
Ab----555555--444444--000000----323232-------------------|
Eb----333333--222222--000000-----------03---------------|
[ Tab from: http://www.guitartabs.cc/tabs/r/rise_against/anyway_you_want_it_tab_ver_5.html ]
Eb-------------------------------------------------------|
Bb-------------------------------------------------------|
Gb-------------------------------------------------------|
Db----555555--444444--000000------020--------------------|
Ab----555555--444444--000000----3-----320----------------|
Eb----333333--222222--000000--------------3--------------|

Solo:
eb|------------------|--------------------|
Bb|--9^-9^-9^-9^--7~-|-7-9-9^--9p7--9p7~--|
Gb|------------------|--------------------|
Db|------------------|--------------------|
Ab|------------------|--------------------|
Eb|------------------|--------------------|

|---------------------------------------------------|
|--9p7----------------------------------------------|
|------8-6-8-6--------------------------------------|
|--------------8-6-8-6-------6----------------------|
|----------------------8-6-8----8-6-8-6-------------|
|---------------------------------------7-10-7/5~---|

|------------------------------------------------------|
|-------7-9-7-9^--9-7-9^-9-7-------7-9-7-9--9^-9-7-----|
|---7-9----------------------7~--9-----------------7~--|
|-9----------------------------------------------------|
|------------------------------------------------------|
|------------------------------------------------------|

((might need some work on it=]))

Eb--------------------------------------------------------|
Bb--------------------------------------------------------|
Gb--------------------------------------------------------|
Db----555555--444444--000000------------------------------|
Ab----555555--444444--000000----323232--------------------|
Eb----333333--222222--000000-----------03----------------|


continue this after solo =]
Comments