Rise Against - Anyway You Want It Chords & Tabs

 

Anyway You Want It Chords & Tabs

Rise Against Chords & Tabs

Version: 4 Type: Tab 0 ratings
1 star 2 stars 3 stars 4 stars 5 stars
comments

Anyway You Want It Tab

|------------------|--------------------|
|--9^-9^-9^-9^--7~-|-7-9-9^--9p7--9p7~--|
|------------------|--------------------|
|------------------|--------------------|
|------------------|--------------------|
|------------------|--------------------|
[ Tab from: http://www.guitartabs.cc/tabs/r/rise_against/anyway_you_want_it_tab_ver_4.html ]
|---------------------------------------------------|
|--9p7----------------------------------------------|
|------8-6-8-6--------------------------------------|
|--------------8-6-8-6-------6----------------------|
|----------------------8-6-8----8-6-8-6-------------|
|---------------------------------------7-10-7/5~---|

|------------------------------------------------------|
|-------7-9-7-9^--9-7-9^-9-7-------7-9-7-9--9^-9-7-----|
|---7-9----------------------7~--9-----------------7~--|
|-9----------------------------------------------------|
|------------------------------------------------------|
|------------------------------------------------------|

Email me if theres any mistakes at mikey_w_@hotmail.com 
Comments