Rise Against - Anyway You Want It Chords & Tabs

 

Anyway You Want It Chords & Tabs

Rise Against Chords & Tabs

Version: 3 Type: Tab 0 ratings
1 star 2 stars 3 stars 4 stars 5 stars
comments

Anyway You Want It Tab

   
Rise Against
Anyway You Want It
Difficulty:  Easy
Tabbed by: BTH Guitarist
Tuning: Eb Ab Db Gb Bb Eb


Intro:

Eb-------------------------------------------------------|
Bb-------------------------------------------------------|
Gb-------------------------------------------------------|
Db----5--44--22--------------------020-------------------|
Ab----5--44--22--------323232----3-----320---------------|
Eb----3--22--00---------------3-------------3------------|

Verse:

Eb-------------------------------------------------------|
Bb-------------------------------------------------------|
Gb-------------------------------------------------------|     X4
Db----5xxxxx----4xxxxx----2xxxxx-------------------------|
Ab----5xxxxx----4xxxxx----2xxxxx----323232---------------|
Eb----3xxxxx----2xxxxx----0xxxxx------------03-----------|

Chorus:
[ Tab from: http://www.guitartabs.cc/tabs/r/rise_against/anyway_you_want_it_tab_ver_3.html ]
Eb-------------------------------------------------------|
Bb-------------------------------------------------------|
Gb-------------------------------------------------------|
Db----555555--444444--000000-----------------------------|
Ab----555555--444444--000000----323232-------------------|
Eb----333333--222222--000000-----------03ó---------------|

Eb-------------------------------------------------------|
Bb-------------------------------------------------------|
Gb-------------------------------------------------------|
Db----555555--444444--000000------020--------------------|
Ab----555555--444444--000000----3-----320----------------|
Eb----333333--222222--000000--------------3--------------|


After chorus, itís back to verse

Solo:

I donít know the solo, but I do know that the rythem plays the first part of the chorus

Eb--------------------------------------------------------|
Bb--------------------------------------------------------|
Gb--------------------------------------------------------|
Db----555555--444444--000000------------------------------|
Ab----555555--444444--000000----323232--------------------|
Eb----333333--222222--000000-----------03ó----------------|


Keep playing that part till end of the song.

Good Luck!
Comments