Rise Against - Anyway You Want It Chords & Tabs

 

Anyway You Want It Chords & Tabs

Rise Against Chords & Tabs

Version: 2 Type: Tab 0 ratings
1 star 2 stars 3 stars 4 stars 5 stars
comments

Anyway You Want It Tab

chorus:
|--------------------------------------|
|--------------------------------------|
|--------------------------32323232-3--|
|------------------------------------3-|

veres:
|--------------------------------------|
|--------------------------------------|
|--------------------------32323232----|
|3---333--2---222-0---000-----------33-|
[ Tab from: http://www.guitartabs.cc/tabs/r/rise_against/anyway_you_want_it_tab_ver_2.html ]
chorus:
|--------------------------------------|
|--------------------------------------|
|--------------------------32323232-3--|
|333333332222222200000000------------3-|

veres:
|--------------------------------------|
|--------------------------------------|
|--------------------------32323232----|
|3---333--2---222-0---000-----------33-|

chorus:
|--------------------------------------|
|--------------------------------------|
|--------------------------32323232-3--|
|333333332222222200000000------------3-|

solo:
|--------------------------------------|
|--------------------------------------|
|--------------------------32323232----|
|3---333--2---222-0---000-----------33-|
Comments