Rise Against - Amber Changing Chords & Tabs

 

Amber Changing Chords & Tabs

Rise Against Chords & Tabs

Version: 2 Type: Bass Tab 0 ratings
1 star 2 stars 3 stars 4 stars 5 stars
comments

Amber Changing Bass Tab

Rise Against - Amber Changing
Bass Tab


Fast "picking"

Intro
G|--------------------|
D|-------2>-----------|
A|----2>--------------|  x4 (Last let ring)
E|-4>-------2>--------|
[ Tab from: http://www.guitartabs.cc/tabs/r/rise_against/amber_changing_btab_ver_2.html ]
Verse
G|--------------------------------------------|
D|----2>-2124------2>--21---------------------|
A|-----------------------42---------21-124----|  x2   
E|-4>----------4>-----------2>---0>---2-------|

Chorus
G|------------------------------------------------------------|
D|-----------------------------------------22222222-4444444-4~|
A|-------------1-22-222-22124------------1--------------------|  x2
E|-44-444-4424---------------44-444-4424----------------------|

Verse x2
Chorus x2
Intro x4
Chorus x2 Let ring

Comments