Rise Against - 401 Kill Chords & Tabs

 

401 Kill Chords & Tabs

Rise Against Chords & Tabs

Version: 1 Type: Tab 0 ratings
1 star 2 stars 3 stars 4 stars 5 stars
comments

401 Kill Tab

Band- Rise Against
Song- 401 Kill

#=X3
o=X4
%=X5
*=X6
m=palm mute
^=let ring


intro
-m-m-m-----------------------------------m-m-----m-m-------------|
------------------#----#--#---#-----#--#------------------#--#---|
------------#--#-6--6-9--6--11--11-9--7--6-6-6-6-6-6-6-6-7--6----|
-4-4-4-4-4-7--9--x--x-x--x---x---x-x--x--6-6-6-6-6-6-6-6-x--x----| X2
-4-4-4-4-4-7--9--4--4-7--4---9---9-7--5--4-4-4-4-4-4-4-4-5--4----|
-2-2-2-2-2-5--7--------------------------------------------------|

verse 1
-------m-m----------------------------------------|
----------------------#----*---#-----#--#--#----*-|
--^--^----------#--#-6--6-6--11--11-9--7--6--6-6--|
-4--4--4-4-4-4-7--9--6--6-6---x---x-x--x--6--6-6--|
-4--4--4-4-4-4-7--9--4--4-4---9---9-7--5--4--4-4--|
-2--2--2-2-2-2-5--7-------------------------------|

chorus
-----------------------------------------------------|
----o--o---o---o---*---*----o--o---o---o---*---#---#-|
-6-7--9--11--14--13--10--6-7--9--11--14--13--16--13--|
-x-x--x---x---x---x---x--x-x--x---x---x---x---x---x--|
-4-5--7---9--12--11---8--4-5--7---9--12--11--14--11--|
-----------------------------------------------------|

---------------------------------------------|
----o--o---o---o---*---*----o--o---o---o---*-|
-6-7--9--11--14--13--10--6-7--9--11--14--13--|
-x-x--x---x---x---x---x--x-x--x---x---x---x--|
-4-5--7---9--12--11---8--4-5--7---9--12--11--|
---------------------------------------------|

intro X1
[ Tab from: http://www.guitartabs.cc/tabs/r/rise_against/401_kill_tab.html ]
verse 2
-m-m----m-m----m-m----m-m------------------|
-------------------------------------------| it miss
---------------------------^---------------| something
-4-4-4--4-4-4--4-4-4--4-4-4----------------| here
-4-4-4--4-4-4--4-4-4--4-4-4----------------|
-2-2-2--2-2-2--2-2-2--2-2-2---pick-slide---|

-m-m----------------------------------------|
----------------#----*---#-----#--#--#----*-|
----------#--#-6--6-6--11--11-9--7--6--6-6--|
-4-4-4-4-7--9--6--6-6---x---x-x--x--6--6-6--|
-4-4-4-4-7--9--4--4-4---9---9-7--5--4--4-4--|
-2-2-2-2-5--7-------------------------------|

chorus

bridge
------- ---------------------------|
------- --#-----#-----#------*---*-|
-16-13- -7---*-7---*-7---*--9--13--| X2
--x--x- -7--4--7--4--7--4---x---x--|
-14-11- -5--4--5--4--5--4---7--11--|
------- ----2-----2-----2----------|

--------------------------------|
---%---%---%---%----------------|
-11--11--14--13----%---%---%--%-|
--x---x---x---x--11--11--12--9--| X2
--9---9--12--11---x---x---x--x--|
------------------9---9--10--7--|

----------------------------------------------------------------------|
----------------------------------------------------------------------|
----------------------------------------------------------------------| X2
--*--#-----------------------------*--#-------------9-7-6-------------|
-9--9--11-12-11-----*--#---#------9--9--11-12-11-----------12-11------|
----------------12-9--9--12--9-12----------------12--------------12-9-|

-----
---^-
-11--
-11--
--9--
Comments