Rise Against - 401 Kill Chords & Tabs

 

401 Kill Chords & Tabs

Rise Against Chords & Tabs

Version: 1 Type: Bass Tab 0 ratings
1 star 2 stars 3 stars 4 stars 5 stars
comments

401 Kill Bass Tab

   
Band- Rise Against
Song- 401 Kill

Figure Out Timing And Strumming By Listening 
To The Song 
Use Alternate Picking Where Necessary

-INTRO/MAIN RIFF/VERSE 

G---------------------------|
D---------------------------|
A-------4-7-4--9-7-5--4-5-4-|
E-2-5-7---------------------| (X 4)

-CHORUS

G-----------------|---------------------|
D-----------------|---------------------|
A-5-7-9-12-11-8-4-|-5-7-9-12-11-14-11-4-|
E-----------------|---------------------| (X 2)
[ Tab from: http://www.guitartabs.cc/tabs/r/rise_against/401_kill_btab.html ]
G---------|
D---------|
A---2-----|
E-4---5-0-| (X 1)

-BRIDGE

G-----------------------|
D-----------------------|
A-5-----5-----5-----7-4-|
E---2------2------2-----| (X 2)

-ENDING 

G-----------------|
D-----------------|
A-9-12-11-7-4-5-2-|
E-----------------| (X 4)

-End Note

G---|
D---|
A-4-|
E---| (X 1)

|--------------|
|Song Structure|
|--------------|
|Intro Verse   |
|Chorus        |
|Vrese X1 Verse|
|Chorus        |
|Bridge        | 
|Ending        | 
|--------------|
Comments