Rise Against - 3 Day Weekend Chords & Tabs

 

3 Day Weekend Chords & Tabs

Rise Against Chords & Tabs

Version: 1 Type: Bass Tab 0 ratings
1 star 2 stars 3 stars 4 stars 5 stars
comments

3 Day Weekend Bass Tab

   
Band- Rise Against
Song- 3 Day Weekend

Standard Tuning.

~ = let ring.

  Intro
G: -----------------------------------------------------------------------------------------|
D: 77-77-7777-55-55-5555-44-44-4444-33-33-3333-99-99-9999-77-77-7777-66-66-6666-55-55-5555--|
A: -----------------------------------------------------------------------------------------|
E: -----------------------------------------------------------------------------------------|

G: --------------------------------------------------------------------|
D: 77-77-7777-55-55-5555-44-44-4444-33-33-3333-99-99-9999-77-77-7777---|
A: -----------------------------------------------------------------7~-|
E: --------------------------------------------------------------------|

  Verse
G: ------------------|
D: ------------------|
A: ------------------|
E: 7777-55555555-3333

G: ------------------|
D: ------------------|
A: ------------------|
E: 7777-55555555-3333

G: ------------------|
D: ------------------|
A: ------------------|
E: 7777-55555555-3333
[ Tab from: http://www.guitartabs.cc/tabs/r/rise_against/3_day_weekend_btab.html ]
G: ------------------|
D: ------------------|
A: ------------------|
E: 7777-55555555-3333

  Chorus
G: ------------------------------------|
D: --------------------------------5-5-|
A: -------------------------------3-5--|
E: 33333333-22222222-00000000-3333-----|

G: ------------------------------------|
D: --------------------------------5-5-|
A: -------------------------------3-5--|
E: 33333333-22222222-00000000-3333-----|

G: ------------------------------------|
D: --------------------------------5-5-|
A: -------------------------------3-5--|
E: 33333333-22222222-00000000-3333-----|

  Post Chorus
G: ------------------------|
D: ------------------------|
A: 55-5555-77-7777-55-5555-|
E: ------------------------|

  Verse
G: ------------------|
D: ------------------|
A: ------------------|
E: 7777-55555555-3333

G: ------------------|
D: ------------------|
A: ------------------|
E: 7777-55555555-3333

G: ------------------|
D: ------------------|
A: ------------------|
E: 7777-55555555-3333

G: ------------------|
D: ------------------|
A: ------------------|
E: 7777-55555555-3333

and thats entire tab. just play as it follows.
Comments