Rise Against - 1000 Good Intentions Chords & Tabs

 

1000 Good Intentions Chords & Tabs

Rise Against Chords & Tabs

Version: 4 Type: Bass Tab 0 ratings
1 star 2 stars 3 stars 4 stars 5 stars
comments

1000 Good Intentions Bass Tab

1000 Good Intentions
 Intro/Verse 
|------------------------------------------------------------------|
|------------------------------------------------------------------|
|-----------------------------------------------------5-5----------|
|-0-0-7-7-5-5-7-7-8-8-7-7-5-5-3-3-0-0-7-7-5-5-7-7-8-8-----8-8-7-7--|

|------------------------------------------------------------------|
|------------------------------------------------------------------|
|------------------------------------------------------------------|
|-0-0-7-7-5-5-7-7-8-8-7-7-5-5-3-3-2-2-7-7-5-5-3-3-7-7-5-5-3-3-2-2--|

 Chorus
|------------------------------------------------------------------|
|------------------------------------------------------------------|
|-3-3-3-3-3-3-3-3-----------------7-7-7-7-7-7-7-7-7-7-7-7-7-7-7-7--|
|-----------------5-5-5-5-5-5-5-5----------------------------------|

|-------------------------------------------------9-9-7-7-5-5-4-4--|
|------------------------------------------------------------------|
|-3-3-3-3-3-3-3-3---------------5-7-7-7-7-7-7-7-7------------------|
|-----------------5-5-5-5-5-5-5------------------------------------|

|------------------------------------------------------------------|
|------------------------------------------------------------------|
|-3-3-3-3-3-3-3-3-----------------7-7-7-7-7-7-7-7----7--------5----|
|-----------------5-5-5-5-5-5-5-5-----------------0-0-----8--------|

|---------------------------------|
|---------------------------------|
|-3-3---3-3-3-3-3-----------------|
|-----------------5-5---5-5-5-5-5-|

Bridge
|------------------------------------------------------------------|
|------------------------------------------------------------------|
|------------------------------------------------------------------|
|-0---0-0-0-0-0-0-8-8-8-8-5-5-5-5-0---0-0-0-0-0-0-8-8-10101010-----|

|------------------------------------------------------------------|
|------------------------------------------------------------------|
|------------------------------------------------------------------|
|-0---0-0-0-0-0-0-8-8-8-8-5-5-5-5-0---0-0-0-0-0-0-8-8-8-8-10-------|

|----------------------------------------------------------------------|
|----------------------------------------------------------------------|
|---------7---7-7-7-------------------------7---7-7-7------------------|
|-0-0-0-------------8-8-8-8-5-5-5-5-0-0-0-------------8-8-8-8-10101010-|
[ Tab from: http://www.guitartabs.cc/tabs/r/rise_against/1000_good_intentions_btab_ver_4.html ]
|----------------------------------------------------------------------|
|----------------------------------------------------------------------|
|---------7---7-7-7-------------------------7---7-7-7------------------|
|-0-0-0-------------8-8-8-8-5-5-5-5-0-0-0-------------8-8-8-8-10101010-|

|----------------------------------------------------------------------|
|----------------------------------------------------------------------|
|---------7---7-7-7-------------------------7---7-7-7------------------|
|-0-0-0-------------8-8-8-8-5-5-5-5-0-0-0-------------8-8-8-8-10101010-|

|----------------------------------------------------------------------|
|----------------------------------------------------------------------|
|---------7---7-7-7-------------------------7---7-7-7------------------|
|-0-0-0-------------8-8-8-8-5-5-5-5-0-0-0-------------8-8-8-8-10101010-|
|------------------------------------------------------------------|
|------------------------------------------------------------------|
|------------------------------------------------------------------|
|-0----------------------------------------------------------------|

|------------------------------------------------------------------|
|------------------------------------------------------------------|
|------------------------------------------------------------------|
|-7-7-7-7-7-7-7-7-7-7-7-7-7-7-7-7-7-7-7-7-7-7-7-7-7----------------|

Ending

|------------------------------------------------------------------|
|------------------------------------------------------------------|
|-3-3-3-3-3-3-3-3-----------------7-7-7-7-7-7-7-7-7-7-7-7-7-7-7-7--|
|-----------------5-5-5-5-5-5-5-5----------------------------------|

|-------------------------------------------------9-9-7-7-5-5-4-4--|
|------------------------------------------------------------------|
|-3-3-3-3-3-3-3-3---------------5-7-7-7-7-7-7-7-7------------------|
|-----------------5-5-5-5-5-5-5------------------------------------|

|------------------------------------------------------------------|
|------------------------------------------------------------------|
|-3-3-3-3-3-3-3-3-----------------7-7-7-7-7-7-7-7----7--------5----|
|-----------------5-5-5-5-5-5-5-5-----------------0-0-----8--------|

|------------------------------------|
|------------------------------------|
|-3-3---3-3-3-3-3------------------7-|
|-----------------5-5---5-5-5-5-5----|



|-10101010-| those Are 10ís 


Intro/verse X 3
Chorus X 1
Intro/verse X 2 
Chorus X 1
Bridge X 1
Ending X 1
Comments