Rise Against - 1000 Good Intentions Chords & Tabs

 

1000 Good Intentions Chords & Tabs

Rise Against Chords & Tabs

Version: 1 Type: Bass Tab 0 ratings
1 star 2 stars 3 stars 4 stars 5 stars
comments

1000 Good Intentions Bass Tab

   
Band- Rise Against
Song- 1000 Good Intentions

Intro/verse
G|----------------------------------------------------|
D|----------------------------------------------------|
A|-------------------------------------------55-------|
E|---00-77-55-77-88-77-55-33-00-77-55-77-88-----88-77-|

G|---------------------------------------------------------------|
D|---------------------------------------------------------------|
A|---------------------------------------------------------------|
E|---00-77-55-77-88-77-55-33-22-77-55-33-22-00-22-33-77-55-33-22-|
[ Tab from: http://www.guitartabs.cc/tabs/r/rise_against/1000_good_intentions_btab.html ]
chrous
G|--------------------------99-77-55-44--|
D|---------------------------------------|
A|-3>-----7>>--3>-----5-7>---------------|
E|----5>------------5>-------------------|

G|--------------------------------------|
D|--------------------------------------|
A|--3>-----7>-----7---5-3333-33---------|
E|------5>-----00---8-----------5555-55-|

bridge
G|----------------------------------------|
D|----------------------------------------|
A|----------------------------------------|
E|000-000-8888-5555-000-000-8888-10101010-|

G|----------------------------------|
D|----------------------------------|
A|----------------------------------|
E|000-000-8888-5555-000-000-8888-10-|

G|----------------------------------------|
D|----------------------------------------|
A|-----777----------------777-------------|
E|0000-000-8888-5555-0000-000-8888-101010-|
Comments