Riptides - Mallpunks Fuck Off Chords & Tabs

 

Mallpunks Fuck Off Chords & Tabs

Riptides Chords & Tabs

Version: 1 Type: Tab 0 ratings
1 star 2 stars 3 stars 4 stars 5 stars
comments

Mallpunks Fuck Off Tab

Band: The Riptides
Song: Mallpunks, Fuck Off
Album: Appetite for Rejection
Label: Goblin Records
Tabbed by: Donahue2

INTRO/CHORUS:
e|----------------------------------------------|
B|----------------------------------------------|
G|-6-----4-----6---6-----4-----6---6-----4------|
D|-6-7-2-4-6-2-6---6-7-2-4-6-2-6---6-7-2-4-6-2--|
A|-4-7-2-2-6-2-4---4-7-2-2-6-2-4---4-7-2-2-6-2--|
E|---5-0---4-0-------5-0---4-0-------5-0---4-0--|

e|---------------------|
B|---------------------|
G|---------------------|
D|-77777777--99999999--|
A|-77777777--99999999--|
E|-55555555--77777777--|
"Mallpunks Fuck Off! Mallpunks Fuck off! Mallpunks Fuck off! Mallpunks...Fuck you!"

VERSE:
e|------------------------------|
B|------------------------------|
G|-6-6-6-6-6-6-6-6--2-4---2-4---|X3
D|-6-6-6-6-6-6-6-6--2-4-2-2-4-2-|
A|-4-4-4-4-4-4-4-4--0-2-2-0-2-2-|
E|----------------------0-----0-|
[ Tab from: http://www.guitartabs.cc/tabs/r/riptides/mallpunks_fuck_off_tab.html ]
(on fourth time)
e|-------------------------------------|
B|-------------------------------------|
G|-------------------------------------|
D|-6-6-6-6-6-6-6-6---7-7-7-7---9-9-9-9-|
A|-6-6-6-6-6-6-6-6---7-7-7-7---9-9-9-9-|
E|-4-4-4-4-4-4-4-4---5-5-5-5---7-7-7-7-|
"You wont go to see our shows,
 We're a super cool band, but you don't know,
 Call yourself a fuckin' wussy,
 You and your friends are all just pussies."

CHORUS X1
"Mallpunks Fuck off! Mallpunks fuck off! Mallpunks fuck off! Mallpunks...Fuck you!"

Verse X1
"You and your pals, you look like skids,
 Funny thing is you've got no chance,
 Labels got you by the balls,
 Rip you off at shopping malls."

CHORUS X1
"Mallpunks fuck off! Mallpunks fuck off! Mallpunks fuck off! Mallpunks...Fuck you!"

The End.

(Some of these lyrics are definitly wrong, but Andy Vandal says them so fast, you can't 
them)

Donahue2: point_blanc99@hotmail.com
Comments