Riptides - A Riot In Juvenille Prison Chords & Tabs

 

A Riot In Juvenille Prison Chords & Tabs

Riptides Chords & Tabs

Version: 1 Type: Tab 0 ratings
1 star 2 stars 3 stars 4 stars 5 stars
comments

A Riot In Juvenille Prison Tab

   
Band: The Riptides
Title: A Riot in Juvenille Prison
Album: Appetite For Rejection
Label: Goblin Records
Tabbed by: Donahue2
Email: Point_blanc99@hotmail.com

Tuning: Standard

This is a great Ottawa Hardcore punk band.

INTRO:
e|-------------------------|
B|-----------------------4-|
G|-6-----4---------------4-|
D|-6-x8--4-x8--6-----6-6-2-|
A|-4-----2-----6-x8--6-6---|
E|-------------4-----4-4---|

VERSE:
e|-------------------------------------|
B|-------------------------------------|
G|--------4--------4--------4--------4-|
D|-6------4-6------4-6------4-6------4-|
A|-6-X15--2-6-x15--2-6-x15--2-6-x15--2-|
E|-4--------4--------4--------4--------|
"It's a riot in Juvenille Prison! It's a riot in Juvenille prison! It's a riot
in Juvenille prison! Oh, it's a riot in Juvenille Prison! GO!"
[ Tab from: http://www.guitartabs.cc/tabs/r/riptides/a_riot_in_juvenille_prison_tab.html ]
BRIDGE:
e|----------------|-------------------------------------------|
B|----------------|-------------------------------------------|
G|-4-4/6-66666666-|X4-4-------------------------------------4-|
D|-4-4/6-66666666-|---4-66666666--5/66666--5/66666--5/66666-4-|
A|-2-2/4-44444444-|---2-66666666--5/66666--5/66666--5/66666-2-|
E|----------------|-----44444444--3/44444--3/44444--3/44444---|

VERSE1 X1
BRIDGE X1

VERSE2:
e|-----------------------|
B|-----------------------|
G|-4-----4-----4-----4---|
D|-4-6---4-6---4-6---4-6-|
A|-2-6---2-6---2-6---2-6-|
E|---4-----4-----4-----4-|
"It's a riot in Juvenille Prison! It's a riot in Juvenille Prison! It's a riot
in Juvenille Prison! Oh, it's a riot in Juvenille Prison!"

VERSE1 X1

OUTRO:
e|-----|
B|-----|
G|-4---|
D|-4-6-|
A|-2-6-|
E|---4-|



| /  slide up
| \  slide down
| h  hammer-on
| p  pull-off
| ~  vibrato
| +  harmonic
| x  Mute note
===============================================================================
Comments