Ripsipiirakka - Rafaelin Enkeli Chords & Tabs

 

Rafaelin Enkeli Chords & Tabs

Ripsipiirakka Chords & Tabs

Version: 1 Type: Tab 0 ratings
1 star 2 stars 3 stars 4 stars 5 stars
comments

Rafaelin Enkeli Tab

   
Rafaelin Enkeli (cover) by Ripsipiirakka

Tuning: Tuned down 1/2 step (Eb, Ab, Db, Gb, Bb, Eb)
Tabber: TwR

www.ripsipiirakka.com

~*~*~*~*~*~*~*~*~*~*~*~*~*~*~*~*~*~*~*~*~*~*~*~*~*~*~*~*~

(2x)
e|----------------------------------------------|
B|----------------------------------------------|
G|-----9-7--------9-7---------------------------|
D|--7------10--7------10--9---10p9h10-9h10p9----|
A|----------------------------------------------|
E|----------------------------------------------|


~*~*~

(2x)
e|------------------------------------------------------------------------|
B|------------------------------------------------------------------------|
G|-------------------7-7-7-7-7-7-7-7-------------------9-9-9-9-9-9-9-9----|
D|--7-7-7-7-7-7-7-7--7-7-7-7-7-7-7-7--5-5-5-5-5-5-5-5--9-9-9-9-9-9-9-9----|
A|--7-7-7-7-7-7-7-7--5-5-5-5-5-5-5-5--5-5-5-5-5-5-5-5--7-7-7-7-7-7-7-7----|
E|--5-5-5-5-5-5-5-5-------------------3-3-3-3-3-3-3-3---------------------|
    PM.............  PM.............  PM.............  PM.............

Halki tuhannen savuisen salongin,
neiti tanssii gasellin askelin.
Mulla yllä on harmaa jumpperi
sain sen jouluna vaimolta lahjaksi.


~*~*~

e|---------------------------------------------|
B|---------------------------------------------|
G|--5-------------------7-----9----------------|
D|--5---5---3---2----7--7--5--9-(stop)---------|
A|--3---5---3---2----7--5--5--7----------------|
E|------3---1---0----5-----3-------------------|

Tämä neonsade silmää kirvelee,
diesel lemahtaa yö kun yskäsee.
Anna minulle armahduksesi,
ole minulle Rafaelin enkeli.


~*~*~

(2x)
e|----------------------------------------------|
B|----------------------------------------------|
G|-----9-7--------9-7---------------------------|
D|--7------10--7------10--9---10p9h10-9h10p9----|
A|----------------------------------------------|
E|----------------------------------------------|


~*~*~

(2x)
e|------------------------------------------------------------------------|
B|------------------------------------------------------------------------|
G|-------------------7-7-7-7-7-7-7-7-------------------9-9-9-9-9-9-9-9----|
D|--7-7-7-7-7-7-7-7--7-7-7-7-7-7-7-7--5-5-5-5-5-5-5-5--9-9-9-9-9-9-9-9----|
A|--7-7-7-7-7-7-7-7--5-5-5-5-5-5-5-5--5-5-5-5-5-5-5-5--7-7-7-7-7-7-7-7----|
E|--5-5-5-5-5-5-5-5-------------------3-3-3-3-3-3-3-3---------------------|
    PM.............  PM.............  PM.............  PM.............

Huorat kuiskivat porttikongeistaan,
ujo poika ei sinne katsokkaan.
Ne sirosti niskojaan niksauttaa,
äiti neuvoi että tuijottaa ei saa.


~*~*~

e|---------------------------------------------|
B|---------------------------------------------|
G|--5-------------------7-----9----------------|
D|--5---5---3---2----7--7--5--9-(stop)---------|
A|--3---5---3---2----7--5--5--7----------------|
E|------3---1---0----5-----3-------------------|

Kurkku kipeänä aamuun ankeaan,
kuka käski mennä alasti nukkumaan.
Anna minulle armahduksesi,
ole minulle Rafaelin enkeli.


~*~*~

e|------------------------------------|
B|------------------------------------|
G|--5---------------7-----9-----------|
D|--5--5--3--2---7--7--5--9-----------|
A|--3--5--3--2---7--5--5--7-----------|
E|-----3--1--0---5-----3--------------|

Lapset hinaavat kohmeisin sormin lippuja salkoihin,
kuka laittaisi niille edes kengät pieniin jalkoihin...

e|------------------------------------|
B|------------------------------------|
G|------7-------9---------------------|
D|--7---7---5---9---------------------|
A|--7---5---5---7---------------------|
E|--5-------3-------------------------|

Viime yö veti routaan tämän maan ja se maa on käärmeita mustanaan.


~*~*~
[ Tab from: http://www.guitartabs.cc/tabs/r/ripsipiirakka/rafaelin_enkeli_tab.html ]
e|----------------------------------------------|
B|----------------------------------------------|
G|-----9-7--------9-7---------------------------|
D|--7------10--7------10--9---10p9h10-9h10p9----| (2x)
A|----------------------------------------------|
E|----------------------------------------------|


~*~*~

(2x)
e|------------------------------------------------------------------------|
B|------------------------------------------------------------------------|
G|-------------------7-7-7-7-7-7-7-7-------------------9-9-9-9-9-9-9-9----|
D|--7-7-7-7-7-7-7-7--7-7-7-7-7-7-7-7--5-5-5-5-5-5-5-5--9-9-9-9-9-9-9-9----|
A|--7-7-7-7-7-7-7-7--5-5-5-5-5-5-5-5--5-5-5-5-5-5-5-5--7-7-7-7-7-7-7-7----|
E|--5-5-5-5-5-5-5-5-------------------3-3-3-3-3-3-3-3---------------------|
    PM.............  PM.............  PM.............  PM.............

Hermokaasuja olohuoneisiin,
krokotiileja New Yorkin viemäriin.
Kuvia vielä kuvien jälkeenkin,
videotykillä suolaa haavoihin.


~*~*~

e|---------------------------------------------|
B|---------------------------------------------|
G|--5-------------------7-----9----------------|
D|--5---5---3---2----7--7--5--9 (stop)---------|
A|--3---5---3---2----7--5--5--7----------------|
E|------3---1---0----5-----3-------------------|

Kuka sanoi että askel painaa jo,
olen kevyt kuin sudenkorento.
Anna minulle armahduksesi ,
ole minulle Rafaelin enkeli.


~*~*~

(2x)
e|---------------------------------------------|
B|---------------------------------------------|
G|------7-------9------------------------------|
D|--7---7---5---9------------------------------|
A|--7---5---5---7------------------------------|
E|--5-------3----------------------------------|

Uutispuuroa aamupöydässä,
mies tarvitsee kunnon evästä.
Kumpi voittaa Karhu vai leijona,
kysyy minulta töissä johtaja.


~*~*~

e|---------------------------------------------------------------------|
B|---------------------------------------------------------------------|
G|--5-5-5-5-5-5-5-5----------------------------------------------------|
D|--5-5-5-5-5-5-5-5--5-5-5-5-5-5-5--3-3-3-3-3-3-3-3--2-2-2-2-2-2-2-2---|
A|--3-3-3-3-3-3-3-3--5-5-5-5-5-5-5--3-3-3-3-3-3-3-3--2-2-2-2-2-2-2-2---|
E|-------------------3-3-3-3-3-3-3--1-1-1-1-1-1-1-1--0-0-0-0-0-0-0-0---|
    PM.............  PM...........  PM.............  PM.............

Mikä minä olen sille vastaamaan,
multa luvut jäi kesken aikanaan.

e|-----------------------------------------------------------------|
B|-----------------------------------------------------------------|
G|-------------------7-7-7-7-7-7-7-7-------------------9-----------|
D|--7-7-7-7-7-7-7-7--7-7-7-7-7-7-7-7--5-5-5-5-5-5-5-5--9--(stop)---|
A|--7-7-7-7-7-7-7-7--5-5-5-5-5-5-5-5--5-5-5-5-5-5-5-5--7-----------|
E|--5-5-5-5-5-5-5-5-------------------3-3-3-3-3-3-3-3--------------|
    PM.............  PM.............  PM.............

Anna minulle armahduksesi,
ole minulle Rafaelin enkeli.


~*~*~

e|------------------------------------|
B|------------------------------------|
G|--5---------------7-----9-----------|
D|--5--5--3--2---7--7--5--9-----------|
A|--3--5--3--2---7--5--5--7-----------|
E|-----3--1--0---5-----3--------------|

Lapset hinaavat kohmeisin sormin lippuja salkoihin,
kuka laittaisi niille edes kengät pieniin jalkoihin...

e|------------------------------------|
B|------------------------------------|
G|------7-------9---------------------|
D|--7---7---5---9-(stop)--------------|
A|--7---5---5---7---------------------|
E|--5-------3-------------------------|

Viime yö veti routaan tämän maan ja se maa on käärmeita mustanaan.


~*~*~

(6x)
e|----------------------------------------------|
B|----------------------------------------------|
G|-----9-7--------9-7---------------------------|
D|--7------10--7------10--9---10p9h10-9h10p9----|
A|----------------------------------------------|
E|----------------------------------------------|

Anna minulle armahduksesi,
ole minulle Rafaelin enkeli.
Comments