Ripsipiirakka - Etsin Nuijaa Seuraavaa Chords & Tabs

 

Etsin Nuijaa Seuraavaa Chords & Tabs

Ripsipiirakka Chords & Tabs

Version: 1 Type: Tab 0 ratings
1 star 2 stars 3 stars 4 stars 5 stars
comments

Etsin Nuijaa Seuraavaa Tab

   
Ripsipiirakka - Etsin nuijaa seuraavaa
Viritys: E,A,d,g,h,E

Tabbed by plikk

Intro:
  g
    Vo-oo-o-oo

  Am    F     g       C   Am    F     g    C
|---------------------------------------------|
|---------------------------------------------|
|-2-4-5-4-2---------------2-4-5-4-2-----2-4-5-|
|-----------5-5---------2-----------5-5-------|
|---------------5-5-5-3-----------------------|
|---------------------------------------------|
|					      |
|-5-7-8-7-5---------------5-7-8-7-5-----5-7-8-|
|-----------8-8---------5-----------8-8-------|
|---------------7-7-7-5-----------------------|
|---------------------------------------------|
|---------------------------------------------|
|---------------------------------------------|
[ Tab from: http://www.guitartabs.cc/tabs/r/ripsipiirakka/etsin_nuijaa_seuraavaa_tab.html ]
Säkeistö 1:
  C         Am
  Sä päätit leffaan lähtee
  F             g       C
  Esittää uutta poppitähtee
               Am
  Kun sä sinne tuut
           F             g   
  Näät mut kanssa jonkun muun
  C          Am         g
  Sun pitäis se jo ymmärtää
             F         C
  Että annan hyvän kiertää
              Am 
  Et mua enää nää
        F
  Et ikinää

  Vo-oo-o-oo
  

KertosäE:
  Am               F
  Sä aloit deittiä tuijottaa
         g                C
  Kun et osaa mitään muutakaan
  Am        F  
  Mä siellä nyt jo etsin
  g            C
  Nuijaa seuraavaa
  Am             F
  Mä lupasin sua rakastaa
           g               C
  Mut kato mua miten naurattaa
  Am    F           g           C
  Ja sä luulit että oot mun ainoa 

Intro

Säkeistö 2: Soitetaan samoin kuin ensimmäinen.

  Piti mennä juhliin kaksin
  Ei napannut joten otin taksin
  Toista tapaamaan lähdin en enää palaa 
  Vaikka syvemmälle painun
  Mitä sitten tätä oon aina halunnut
  En tunne mitään
  tyhjyyttää
  
  Vo-oo-o-oo

KertosäE
  Am        F            g       C  
  Nyt etsin nuijaa seuraavaa
  Am        F            g   
  Nyt etsin nuijaa seuraavaa
  
  Vo-oo-o-oo
  
KertosäE
  Am       F         g         C
  Ja sä luulit että oot mun ainoa 
  Am       F         g         C
  Ja sä luulit että oot mun ainoa
Comments