Ripkord - Rebellion Chords & Tabs

 

Rebellion Chords & Tabs

Ripkord Chords & Tabs

Version: 1 Type: Tab 0 ratings
1 star 2 stars 3 stars 4 stars 5 stars
comments

Rebellion Tab

   
Ripkord, Rebellion.
 Tabbed by greg(Ripkord guitarist), mywaylb5@yahoo.com.
  
(fret)=hold note
*Fret*=rise
Intro
e|----------------------------------------------------
B|----------------------------------------------------
G|----------------------------------------------------
D|---------------------------2-0-3-0-2-0-2-0-3-0-2-0
A|---------------------------2-0-3-0-2-0-2-0-3-0-2-0
E|-0-2-0-3-0-2-0-2-0-3-0-2-0-2-0-3-0-2-0-2-0-3-0-2-0

e|----------------------------------------------------
B|----------------------------------------------------
G|----------------------------------------------------
D|-2-0-3-0-2-0-2-0-3-0-2-0
A|-2-0-3-0-2-0-2-0-3-0-2-0
E|-2-0-3-0-2-0-2-0-3-0-2-0

Verse Riff
e|----------------------------------------------------
B|----------------------------------------------------
G|----------------------------------------------------
D|----------------------------------------------------
A|----------------------------------------------------
E|-0-2-0-(3)---0-2-0-(4) Repeat for all verses.

Chorus
[ Tab from: http://www.guitartabs.cc/tabs/r/ripkord/rebellion_tab.html ]
e|----------------------------------------------------
B|----------------------------------------------------
G|----------------------------------------------------
D|-0-2-0-3-0-2-0-2-0-3-0-2-0-2-0-3-0-2-0-2-0-3-0-2-0--
A|-0-2-0-3-0-2-0-2-0-3-0-2-0-2-0-3-0-2-0-2-0-3-0-2-0--
E|-0-2-0-3-0-2-0-2-0-3-0-2-0-2-0-3-0-2-0-2-0-3-0-2-0--

Bridge
e|----------------------------------------------------
B|----------------------------------------------------
G|----------------------------------------------------
D|----------------------------------------------------
A|----------------------------------------------------E|0-2-0-5-5-0-0-3-3-0-2-0-5-5-0-0-3-3-0-2-0-5-5-0-0-

e|----------------------------------------------------
B|----------------------------------------------------
G|----------------------------------------------------
D|----------------------------------------------------
A|----------------------------------------------------E|3-3-0-2-0-*5 6 7 8 9 10 11 12*

e|----------------------------------------------------
B|----------------------------------------------------
G|----------------------------------------------------
D|----------------------------------------------------
A|-020330202202033020330207-5-3-5-0-7-5-3-5-0-7-5-3-5
E|-020330202202033020330207-5-3-5-0-7-5-3-5-0-7-5-3-5

e|----------------------------------------------------
B|----------------------------------------------------
G|----------------------------------------------------
D|----------------------------------------------------
A|-5-3-5-0-7-5-3-5-0-7-5-3-3375
E|-5-3-5-0-7-5-3-5-0-7-5-3-3375
 
:: Ultimate Guitar Archive :: 
http://www.ultimate-guitar.com 



Comments