Riot Act - Inside Of You Chords & Tabs

 

Inside Of You Chords & Tabs

Riot Act Chords & Tabs

Version: 1 Type: Tab 0 ratings
1 star 2 stars 3 stars 4 stars 5 stars
comments

Inside Of You Tab

   
-------------------------------------------------------------------------------
			     INSIDE OF YOU - Riot Act
-------------------------------------------------------------------------------
Tabbed by:The Animal
	This is a really good song!It was one of the first ever made by Riot Act.
The lead guitarist Mike Pachal likes to use a lot of bass in this song to give it
the dark, gothic sound. Play it fast and heavy!

Tuning:eBGDAE
Both Guitars			Intro/Verse 1(palm muted)
e|---------------------------------------------------------------------------|
B|---------------------------------------------------------------------------|
G|---------------------------------------------------------------------------|
D|-2----------5----------2----------5----------------------------------------|
A|-2-(2 bars)-5-(2 bars)-2-(2 bars)-5-(2 bars)-------------------------------|
E|-0----------3----------0----------3----------------------------------------|

e|---------------------------------------------------------------------------|
B|---------------------------------------------------------------------------|
G|-9----------12----------9----------12--------------------------------------|
D|-9-(2 bars)-12-(2 bars)-9-(2 bars)-12-(2 bars)-Let last 5 strums scream----|
A|-7----------10----------7----------10--------------------------------------|
E|---------------------------------------------------------------------------|
Both Guitars			      Chorus
e|---------------------------------------------------------------------------|
B|---------------------------------------------------------------------------|
G|-7-7-7-7-7-----------------------------------------------------------------|
D|-7-7-7-7-7-2-2-2-2-2-2-2-2-2-2---------------------------------------------|
A|-5-5-5-5-5-2-2-2-2-2-2-2-2-2-2-5-5-7-7-7-7-7-7-7---------------------------|
E|-----------0-0-0-0-0-0-0-0-0-0-3-3-5-5-5-5-5-5-5---------------------------|

e|---------------------------------------------------------------------------|
B|---------------------------------------------------------------------------|
G|-5-5-5-5-5-----------------------------------------------------------------|
D|-5-5-5-5-5-----------------------------------------------------------------|
A|-3-3-3-3-3-2-2-2-2-2-2-2-2-2-2-5-5-7-7-7-7-7-7-7---------------------------|
E|-----------0-0-0-0-0-0-0-0-0-0-3-3-5-5-5-5-5-5-5---------------------------|
[ Tab from: http://www.guitartabs.cc/tabs/r/riot_act/inside_of_you_tab.html ]
	For Verse 2 play the verse 1 chords without muting them.
		          Then play chorus again.
Both Guitars			 Pre solo riff
e|---------------------------------------------------------------------------|
B|---------------------------------------------------------------------------|
G|---------------------------------------------------------------------------|
D|-7-7-7-5-7-7-7-5-7-7-7-5-7-------------------------------------------------|
A|-7-7-7-5-7-7-7-5-7-7-7-5-7-------------------------------------------------|
E|-5-5-5-5-5-5-5-5-5-5-5-5-5-------------------------------------------------|
Guitar 1			      Solo ( Backup for solo is shown underneath)
e|-t19h15p17h15-t19h15p17h15-t18h14p16h14--12-12 shake heavy-----------------|
B|---------------------------------------------------------------------------|
G|---------------------------------------------------------------------------|
D|-----------------5-5-5-----------------------------------------------------|
A|-2-2-2-2-2-2-2-2-3-3-3-5-5-5-----------------------------------------------|
E|-0-0-0-0-0-0-0-0-------3-3-3-----------------------------------------------|

e|-12h15p12h115p12h10p12h10p8h10p8h7p8h7p5h7p5-3-----------------------------|
B|---------------------------------------------3-shake-----------------------|
G|---------------------------------------------------------------------------|
D|---------------------------------------------------------------------------|
A|-7-7-7-7-7-7-7-7-7-7-7-7-5-5-5---------------------------------------------|
E|-5-5-5-5-5-5-5-5-5-5-5-5-3-3-3---------------------------------------------|

e|-5h3p0-5h3p0-5h3p0-5h3p0-5h3p0-5h3p0-5h3p0-5h3p0-5h3p0-5h3p0-5h3p0-5h3p0---|
B|---------------------------------------------------------------------------|
G|---------------------------------------------------------------------------|
D|-----------------5-5-5-----------------------------------------------------|
A|-2-2-2-2-2-2-2-2-3-3-3-5-5-5-----------------------------------------------|
E|-0-0-0-0-0-0-0-0-------3-3-3-----------------------------------------------|

e|-12-let note scream-19/\/\/\17/\/\/\15/\/\/\14/\/\/\-----------------------| 
B|----------------------------------------------------15/\/\/\17/\/\/\/17/\/\| 
G|---------------------------------------------------------------------------| 
D|---------------------------------------------------------------------------|   
A|-7-7-7-7-7-7-7-7-7-7-7-7-5-5-5---------------------------------------------                              
E|-5-5-5-5-5-5-5-5-5-5-5-5-3-3-3---------------------------------------------|
	Then play chorus twice. That's it.
Key=
| t  Tap
| /  slide up
| \  slide down
| h  hammer-on
| p  pull-off
| ~  vibrato
| +  harmonic
| x  Mute note
===============================================================================
Comments