Rilo Kiley - The Execution Of All Things Chords & Tabs

 

The Execution Of All Things Chords & Tabs

Rilo Kiley Chords & Tabs

Version: 1 Type: Bass Tab 0 ratings
1 star 2 stars 3 stars 4 stars 5 stars
comments

The Execution Of All Things Bass Tab

   
Band: Rilo Kiley
Song: The Execution Of All Things
Albulm: The Execution Of All Things
Author: Matt Whittaker
Email: Weezer1037@msn.com

This is a great song by a great band. Very Easy to play.

Intro Part 1
G---------------------------------
D---------------------------------
A---------------------------------
E-0--2---5---0-------------------- 

Intro Part 2
G---------------------------------
D---------------------------------
A---------------------------------
E-00--22---5-(let ring)----------- 

Verse 1
G---------------------------------
D---------------------------------
A---------------------------------
E-00000000222222225555555500000000

Verse 2
G---------------------------------
D---------------------------------
A-------------------------44-22---
E-000000002222222255555555--------
[ Tab from: http://www.guitartabs.cc/tabs/r/rilo_kiley/the_execution_of_all_things_btab.html ]
Verse 3
G--------------------------------------------------------
D--------------------------------------------------------
A-------------------------44-22-0(let ring)--2(let ring)-
E-000000002222222255555555-------------------------------

Bridge 
G--------------------------------------------------------------------
D--------------------------------------------------------------------
A-2-0-2----------------2-0-2---2-0-2----------------2-0-2-0(let ring)
E--------5-0-5--3-3-3-----------------5-0-5--3-3-3-------------------

Outro
G---------------------------------------------------
D---------------------------------------------------
A-44-22-4444-3333-0000-44-2-0-4444-3322-0000-33-22--
E--------------------------------------------------0

--------------------------------------------------------
SONG STRUCTURE

Intro Part 1 (00:09) x3
Intro Part 2 (00:33) x1
Verse 1 (00:41) x3
Verse 2 (01:08) x1
Verse 1 (01:16) x4
Verse 3 (01:50) x1
Bridge (02:03) x1
Verse 1 (02:32) x7
Verse 3 (03:28) x1
Outro (3:42) x1
Comments