Rihanna - California King Bed Chords & Tabs

 

Rihanna Chords & Tabs

Version: 7 Type: Tab 0 ratings
1 star 2 stars 3 stars 4 stars 5 stars
comments

California King Bed Tab

California king bed Outro Solo
Loud



----19-20p-20p---14/22-14/24--22-24p----------------------------------|
-------------------------------------24-22-24hp-----------------------|
------------------------------------------------24--19/21-------------|
----------------------------------------------------------------------|
----------------------------------------------------------------------|
----------------------------------------------------------------------|

----14-15p------------------------------------------------------------|
-----------17-15----15/17-15------------------------------------------|
-----------------16----------16-14/16-14------------------------------|
-----------------------------------------17-14------------------------|
----------------------------------------------------------------------|
----------------------------------------------------------------------|

---------------------------15-----15-----15-----15---------------------|
---------------------15-17----17~----17~----17~------------------------|
---------------14/16---------------------------------------------------|
--------14-17h---------------------------------------------------------|
----17-----------------------------------------------------------------|
-----------------------------------------------------------------------|
[ Tab from: http://www.guitartabs.cc/tabs/r/rihanna/california_king_bed_tab_ver_7.html ]
--------------22-22---------------22-22-------------------------------------|
----20-22-22b-------22b-22-20-22b-------22----------------------------------|
----------------------------------------------------------------------------|
----------------------------------------------------------------------------|
----------------------------------------------------------------------------|
----------------------------------------------------------------------------|

|p. harmonic|
     |
----15b--15--14-15-14--------14-15-14---------------------------------------|
----------------------15-12-----------15-12--15/17-15-17hp------------------|
------------------------------------------------------------16-14-----------|
-------------------------------------------------------------------17-12/14-|
----------------------------------------------------------------------------|
----------------------------------------------------------------------------|

----19-20p-20p-------------------------------------------------------------|
---------------------------------------------------------------------------|
---------------------------------------------------------------------------|
---------------------------------------------------------------------------|
---------------------------------------------------------------------------|
---------------------------------------------------------------------------|




This is my first one. Give me credits for this tab.

add me on facebook or e-mail me gardo06@gmail.com

http://www.facebook.com/Nightfall93
Comments