Rihanna - California King Bed Chords & Tabs

 

Rihanna Chords & Tabs

Version: 5 Type: Tab 0 ratings
1 star 2 stars 3 stars 4 stars 5 stars
comments

California King Bed Tab

   
SONG NAME california king bed  - Band Name Rihanna
-------------------------------------------------------------------------------
Tabbed by:Harry Rutter
Email: hazzarutz@hotmail.com

Tuning: EADGBe

intro:

|--------------|---------------|------------0-------|
|-----3------3-|-----3-----3---|-----3---------3----|
|---0------0---|---0-----0---0-|---0------0------0--|
|--------------|---------------|--------------------|
|-2------3-----|-2-----3-------|-2------3-----------|
|--------------|---------------|--------------------|


|------------0-----|
|-----3--------3---|
|---0------2-----2-|
|------------------|
|------------------|
|-3------2---------|

verse 1
repeat 2x

|-------T--|--------T--|--------T--|-------T--|
|-3---3----|--3---3----|--3---3----|-3---3----|
|-------A--|--------A--|--------A--|-------A--|
|----------|-----------|-----------|----------|
|-2---3----|--2---3----|--2---3----|-------P--|
|-------P--|--------P--|--------P--|-3---2----|

Bridge
|------------0-------------------0---------|
|-----3--------3---------3---------3-------|
|---0------0-----0-----0-------0-----0-----|
|------------------------------------------|
|--------------------2-------3-------------|
|-0------3---------------------------------|

|------------0-------------------0---------|
|-----3--------3---------3---------3-------|
|---0------0-----0-----0-------0-----0-----|
|------------------------------------------|
|--------------------2-------0-------------|
|-0------3---------------------------------|

 Chorus
repeat 2x
                                                end on
e|---------------------------------------------|--------------------------------|
B|---------------------------------------------|--------------------------------|
G|---------------------------------------------|--------------------------------|
D|----5~----------12~--------2~---------10~----|----5~--------------------------|
A|----5~----------12~--------2~---------10~----|----5~--------------------------|
E|----3~----------10~--------0~----------8~----|----3~--------------------------|

verse 1
repeat 2x





bridge




chorus
repeat 2x




solo 1

e|---------------------------------------------------------------------------|
B|--12------------------12----10----------10----12---10----------------------|
G|------12-------------------------12--------------------12---11----12-------|
D|---------12----------------------------------------------------------------|
A|--------------14-----------------------------------------------------------|
E|---------------------------------------------------------------------------|

e|---------------------------------------------------------------------------|
B|---------------------------------------------------------------------------|
G|--11--12--11---------------------------------------------------------------|
D|-------------14--12--10--9-------------------------------------------------|
A|----------------------------10---------------------------------------------|
E|------------------------------10--8--7-------------------------------------|
[ Tab from: http://www.guitartabs.cc/tabs/r/rihanna/california_king_bed_tab_ver_5.html ]
e|---------------------------------------------------------------------------|
B|--12------------------12----10------------------------------12----10-------|
G|------12-----------------------12--11--12--------14----12------------------|
D|----------12-------------------------------12------------------------------|
A|-------------14------------------------------------------------------------|
E|---------------------------------------------------------------------------|



chorus
you can ether play the chords or the solo its up to you



solo 2
for a 22 fret guitar

e|--19--20--19--20--19---12/22--22b-22b--22--19--17-19-17--------------------|
B|--------------------------------------------------------20-17--15/17-------|
G|---------------------------------------------------------------------------|
D|---------------------------------------------------------------------------|
A|---------------------------------------------------------------------------|
E|---------------------------------------------------------------------------|

e|---------------------------------------------------------------------------|
B|--19-20-19-17-15-12-15b15-12-----------------------------------------------|
G|----------------------------14b14-12---------------------------------------|
D|---------------------------------------14--12------------------------------|
A|---------------------------------------------------------------------------|
E|---------------------------------------------------------------------------|

e|---------15--------15---------15------17/19--22-17/19-22-17/19-22--17/19---|
B|----15-17---17-15-----17-15------17-15-------------------------------------|
G|-14b14---------------------------------------------------------------------|
D|---------------------------------------------------------------------------|
A|---------------------------------------------------------------------------|
E|---------------------------------------------------------------------------|

e|-15b--15-14-15-14--------14-15-14----------------------------------------------|
B|-----------------15-12------------15-12--15b--15--10b10------------------------|
G|--------------------------------------------------------12-9--7b---------------|
D|-------------------------------------------------------------------------------|
A|-------------------------------------------------------------------------------|
E|-------------------------------------------------------------------------------|

e|---------------------------------------------------------------------------|
B|-----12--13--12--13-12--13-12----------------------------------------------|
G|-------------------------------12------------------------------------------|
D|---------------------------------------------------------------------------|
A|---------------------------------------------------------------------------|
E|---------------------------------------------------------------------------|

chorus x1
end on
e|------------|
B|------------|
G|------------|
D|----5~------|
A|----5~------|
E|----3~------|


************************************

| /   slide up
| \   slide down
| h   hammer-on
| p   pull-off
| ~   vibrato
| +   harmonic
| x   Mute note
| b   Bend
| pb  Pre-bend
| br  Bend release
| pbr Pre-bend release
| brb Bend release bend

************************************
Comments