Rihanna - California King Bed Chords & Tabs

 

Rihanna Chords & Tabs

Version: 1 Type: Tab 0 ratings
1 star 2 stars 3 stars 4 stars 5 stars
comments

California King Bed Tab

   
Title: California King Bed
Artist: Rihanna
Album: Loud
Tabbed by: karandiramon
Tuning: E A D G B E 


G:  320003
D:  xx0232
Em: 022000
C:  x32010
C*: 8 10 10 9 8 8  




Intro:
|--------------|---------------|------------0-------|
|-----3------3-|-----3-----3---|-----3---------3----|
|---0------0---|---0-----0---0-|---0------0------0--|
|--------------|---------------|--------------------|
|-2------3-----|-2-----3-------|-2------3-----------|
|--------------|---------------|--------------------|


|------------0-----|
|-----3--------3---|
|---0------2-----2-|
|------------------|
|------------------|
|-3------2---------|

Verse I:

Chest to chest,Nose to nose,Palm to palm
We were always just that close
|----------|-----------|-----------|----------|
|-3---3--T-|--3---3--T-|--3---3--T-|-3---3-T--|
|-0---0--A-|--0---0--A-|--0---0--A-|-0---0-A--|
|----------|-----------|-----------|----------|
|-2---3--P-|--2---3--P-|--2---3--P-|----------|
|----------|-----------|-----------|-3---2-P--|



Wrist to wrist, Toe to toe
Lips that felt just like the inside of a rose
|----------|-----------|-----------|----------|
|-3---3--T-|--3---3--T-|--3---3--T-|-3---3-T--|
|-0---0--A-|--0---0--A-|--0---0--A-|-0---0-A--|
|----------|-----------|-----------|----------|
|-2---3--P-|--2---3--P-|--2---3--P-|----------|
|----------|-----------|-----------|-3---2-P--|


So How come when I reach out my finger
|------------0-------------------0---------|
|-----3--------3---------3---------3-------|
|---0------0-----0-----0-------0-----0-----|
|------------------------------------------|
|--------------------2-------3-------------|
|-0------3---------------------------------|

It feels like more than distance between us
|------------0-------------------0---------|
|-----3--------3---------3---------3-------|
|---0------0-----0-----0-------0-----0-----|
|------------------------------------------|
|--------------------2-------0-------------|
|-0------3---------------------------------|




Chorus:

        G          D
In this california king bed
     Em           C
Were 10000 miles apart
          G           D              Em  
I've been california wishing on the stars
                C
For your heart on me
                G
My california king


Verse II:

Eye to eye, Cheek to cheek, Side by side
You were sleeping next to me
|----------|-----------|-----------|----------|
|-3---3--T-|--3---3--T-|--3---3--T-|-3---3-T--|
|-0---0--A-|--0---0--A-|--0---0--A-|-0---0-A--|
|----------|-----------|-----------|----------|
|-2---3--P-|--2---3--P-|--2---3--P-|----------|
|----------|-----------|-----------|-3---2-P--|
[ Tab from: http://www.guitartabs.cc/tabs/r/rihanna/california_king_bed_tab.html ]
Arm in arm, Dusk to dawn, With the curtains drawn
And a little last night on these sheets
|----------|-----------|-----------|----------|
|-3---3--T-|--3---3--T-|--3---3--T-|-3---3-T--|
|-0---0--A-|--0---0--A-|--0---0--A-|-0---0-A--|
|----------|-----------|-----------|----------|
|-2---3--P-|--2---3--P-|--2---3--P-|----------|
|----------|-----------|-----------|-3---2-P--|


So How come when I reach out my fingers
|------------0-------------------0---------|
|-----3--------3---------3---------3-------|
|---0------0-----0-----0-------0-----0-----|
|------------------------------------------|
|--------------------2-------3-------------|
|-0------3---------------------------------|

It feels like more than distance between us
|------------0-------------------0---------|
|-----3--------3---------3---------3-------|
|---0------0-----0-----0-------0-----0-----|
|------------------------------------------|
|--------------------2-------0-------------|
|-0------3---------------------------------|



Chorus:

        G          D
In this california king bed
     Em           C
Were 10000 miles apart
          G           D              Em  
I've been california wishing on the stars
                C
For your heart on me
                G
My california king



Solo:
G D Em C
G D Em C 



G                                   D
Just when I felt like hiving u on us
                                             Em
You turned around and gave me one last touch
                                C  
That made everything feel better
                                G
And even then my eyes got wetter
                                         D
So confused when I asked you if you love me
                            Em
But I don't wanna seen so weak
                C               C*
Maybe I've been California dreaming


Chorus:

        G          D
In this california king bed
     Em           C
Were 10000 miles apart
 G           D              Em  
California wishing on the stars
                C
For your heart on me
               G         D         Em           C
My california king
                G         D         Em           C
My California King


        G          D
In this california king bed
     Em           C
Were 10000 miles apart
          G           D              Em  
I've been california wishing on the stars
                  C
For your heart on me
                G
My california king







I know there are mistakes,but I think it's pretty good. Hope you'll enjoy it
Comments