Rihanna - California King Bed Chords & Tabs

 

California King Bed Chords & Tabs

Rihanna Chords & Tabs

Version: 1 Type: Bass Tab 0 ratings
1 star 2 stars 3 stars 4 stars 5 stars
comments

California King Bed Bass Tab

California King Bed
Rihanna
Tabbed by: avill616@yahoo.com

Hey Arvin roy. This is a nice song heres the tab

Intro 
G|------------------------|
D|------------------------|
A|----3-----3-----3-----5-|
E|-3-----3-----3-----3----|  optional but you can play with along 

Verse 
G|------|
D|------|
A|----3-|
E|-3----|8x  optional but you can play it along

Prechorus 
G|--------------|
D|--------------|
A|----5---7---3-|
E|-3------------|2x

Chorus1 
G|-------------------------------------------------------------------|
D|-------------------------------------------------------------------|
A|-----------------5-5-5-5-5-5-5-5--7-7-7-7-7-7-7-7--3-3-3-3-3-3-3-3-|
E|-3-3-3-3-3-3-3-3---------------------------------------------------|

G|---------------------------------------------------------------------|
D|---------------------------------------------------------------------|
A|-----------------5-5-5-5-5-5-5-5--7-7-7-7-7-7-7-7--3-3-3-3-3-3-3-3---|
E|-3-3-3-3-3-3-3-3---------------------------------------------------3-|
	
Repeat verse, prechorus

Chorus2 
G|-------------------------------------------------------------------|
D|-------------------------------------------------------------------|
A|-----------------5-5-5-5-5-5-5-5--7-7-7-7-7-7-7-7--3-3-3-3-3-3-3-3-|
E|-3-3-3-3-3-3-3-3---------------------------------------------------|2x
[ Tab from: http://www.guitartabs.cc/tabs/r/rihanna/california_king_bed_btab.html ]
Solo  
G|-------------------------------------------------------------------|
D|-------------------------------------------------------------------|
A|-----------------5-5-5-5-5-5-5-5--7-7-7-7-7-7-7-7--3-3-3-3-3-3-3-3-|
E|-3-3-3-3-3-3-3-3---------------------------------------------------|2x

Bridge 
G|----------------------------------------------------------|
D|----------------------------------------------------------|
A|-------------5--5--5--5--7-7-7-7-7-7-7-7--3-3-3-3-3-3-3-3-|
E|-3--3--3--3-----------------------------------------------|

G|--------------------------------------------------------------------------|
D|--------------------------------------------------------------------------|
A|-----------------5-5-5-5-5-5-5-5--7-7-7-7-7-7-7-7-----------------5-5-5-5-|
E|-3-3-3-3-3-3-3-3----------------------------------5-5-5-5-5-5-5-5---------|

Outro   
G|-------------------------------------------------------------------|
D|-------------------------------------------------------------------|
A|-----------------5-5-5-5-5-5-5-5--7-7-7-7-7-7-7-7--3-3-3-3-3-3-3-3-|
E|-3-3-3-3-3-3-3-3---------------------------------------------------|5x
 
G|---------------------------------------------------------------------|
D|---------------------------------------------------------------------|
A|-----------------5-5-5-5-5-5-5-5--7-7-7-7-7-7-7-7--3-3-3-3-3-3-3-3---|
E|-3-3-3-3-3-3-3-3---------------------------------------------------3-|


Comments