Righteous Brothers - Youve Lost That Loving Feeling Chords & Tabs

 

Youve Lost That Loving Feeling Chords & Tabs

Righteous Brothers Chords & Tabs

Version: 1 Type: Tab 0 ratings
1 star 2 stars 3 stars 4 stars 5 stars
comments

Youve Lost That Loving Feeling Tab

This is one of the greatest songs of all time.  The movie's awesome too!  Please
note that I added in distortion, but not at all to make it more modern-sounding.
During the verses on the actual recording, it seems kind of soft, and during the
chorus, it sounds more full(?), and I feel that distortion supplies the proper
effects for this, but that's just me.

You've Lost That Loving Feeling
As performed on the "Top Gun" soundtrack
Performed by the Righteous Brothers

Standard Tuning

Verse (w/ clean tone)
e[--------------------------------
B[--------------------------------
G[-4-------6-------4-------6------
D[-4-------6-------4-------6------
A[-2-------4-------2-------4------
E[--------------------------------

Pre-chorus (w/ clean tone)
e[--------------------------------
B[--------------------------------
G[--------------------------------
D[--------3------4------6---------
A[-6------3------4------6---------
E[-6------1------2------4---------
[ Tab from: http://www.guitartabs.cc/tabs/r/righteous_brothers/youve_lost_that_loving_feeling_tab.html ]
Chorus (w/ distortion)
e[-----------------------------------------------
B[-----------------------------------------------
G[-6--------------------6----------6-------------
D[-6------8------6------6----------6------8------
A[-4------6------6------4----------4------6------
E[-4------6------4------4----------4------6------

Verse

Pre-chorus

Chorus

Bridge pt. 1 (w/ clean tone, x5)
e[------------------------------------------------
B[------------------------------------------------
G[------------------------------------------------
D[----------4-----4--6-----6--4-------------------
A[-4-----4-----------------------6----------------
E[------------------------------------------------

Bridge pt. 2 (w/ distortion, x8)
e[------------------------------------------------
B[------------------------------------------------
G[-6----------------------------------------------
D[-6------4------6------4----6--------------------
A[-4------4------6------4----6--------------------
E[-4------2------4------2----4--------------------

Chorus

Bridge pt. 1

Chorus


And that's it

Song structure
Verse
Pre-chorus
Chorus
Verse
Pre-chorus
Chorus
Bridge pt. 1
Bridge pt. 2
Chorus
Bridge pt. 1
Chorus
Comments