Righteous Brothers - Unchained Melody Chords & Tabs

 

Righteous Brothers Chords & Tabs

Version: 1 Type: Tab 0 ratings
1 star 2 stars 3 stars 4 stars 5 stars
comments

Unchained Melody Tab

ACCURATE TAB HERE!!!  Just copy/paste this into a blank document to make it legible

The Righteous Brothers
UNCHAINED MELODY



Intro
|------------------------------------------|e
|----------0--------------------0----------|B
|-------0-----0--------------0-----0-------|G
|----0-----------0--------0-----------0----|D
|-2-----------------2--2-----------------2-|A
|------------------------------------------|E

Oh, my love, my darling, I've hungered for your touch a long lonely time
|---------------------------------------------------------|e
|-------------0-----------------0-------------------------|B
|-0--2--0--2-----0--0--------2-----0--2--0----------------|G
|----------------------0--3-----------------------0---(0)-|D
|-------------------------------------------2--3----------|A
|---------------------------------------------------------|E

Time goes by so slowly and time can do so much, are you still mine_____
|----------------------------------------------------------|e
|--------------0------------------0----------------3---(3)-|B
|-0--2--0---2-----0---0--------2-----0---2--0---0----------|G
|------------------------0--3------------------------------|D
|----------------------------------------------------------|A
|----------------------------------------------------------|E
[ Tab from: http://www.guitartabs.cc/tabs/r/righteous_brothers/unchained_melody_tab.html ]
I need your love____I need your love_____God speed your love____to me!_______
|-----------------------------------------------------------------|e
|-1--0------------------------------------------------------------|B
|-------0-----------2--0-------------------------------2--0---(0)-|G
|----------0--(0)---------0-----------3--2------------------------|D
|----------------------------2--(2)---------3--0--(0)-------------|A
|-----------------------------------------------------------------|E

Lonely Rivers Flow to the sea, to the sea  to the open arms of the sea
|-------------------------------------------------------------------------------|e
|---------------------------------------------------------------------------0---|B
|----------0----------0-----------0-------------------------------0--2--(2)---2-|G
|----0--2-----3--(3)-----3--2-(2)----3--2--(2)----2--0------0--2---------------0|D
|-3--------------------------------------------3---------3----------------------|A
|-------------------------------------------------------------------------------|E

Play blue 3x each
Lonely Rivers Sigh "Wait for me" "Wait for me"  I'll be coming home wait for me___
|----------------------------------------------------------------------------|e
|---------------------------------------------------------------0------------|B
|----------0---------0-------------------------------0--2--(2)-----2--0--(0)-|G
|----0--2-----3--(3)----3--2--(2)----2--0------0--2--------------------------|D
|-3-------------------------------3---------3--------------------------------|A
|----------------------------------------------------------------------------|E

Repeat first verse for 2nd time through/2nd verses on "chorus"
Comments