Rifles At Recess - Dance On Your Grave Chords & Tabs

 

Dance On Your Grave Chords & Tabs

Rifles At Recess Chords & Tabs

Version: 1 Type: Tab 0 ratings
1 star 2 stars 3 stars 4 stars 5 stars
comments

Dance On Your Grave Tab

   
 1/2 step down
 drop Db
 Im bored.. these are some parts to the song. i think. be prepared to pick fast. and play hard!

Dance on your Grave
|----------------------------|
|-------5--------------------|
|---------4-4h5-2h4-1~-------|
|-8-7------------------------|
|-8-7------------------------|
|-8-7------------------------|


|--------------------------------------------------------|-------------|
|--------------------------------------------------------|-------------|
|-------------22-33-22-----------------------------------|-------------|
|----22-33-55----------33--------------------------------|-------5~ 7~-|
|-55-------------------------11-33-55-33-11-33-11-00---2x|-then--------|
|--------------------------------------------------------|-------------|


|---------------------------|-----------------------------------|
|---------------------------|-----------------------------------|
|---------------------------|------------------------------2----|
|------------3*---5*--3*----|----------------7-5---------2-2----|
|-1*-----3*-----------------|--2*-3*-2*-3*-------8-7-5-3-0-0----|
|---------------------------|-----------------------------------|


|------------------------------------------|
|----------8h10p8-------10p8---------------|
|-7-9-10-9--------10~--------10p9-7h9-6~---|
|------------------------------------------|
|------------------------------------------|
|------------------------------------------|


|-----------------------------------------|-------------------|
|-----------------------------------------|-------------------| sorry no solo..
|--------------------------------------5--|-------------------|
|-----------------7---5----8-7-5--8-3--5--|-000--0-00---------|
|-----5---7---8-------------------8-3--3--|-000--0-00---------|
|-0-0---0---0---0---0--0----------8-3-----|-000--0-00---------|
  p p   p   p   p   p  p                    ppp  p pp

Here is where it starts getting retarted
|------------------|------------------|
|------------------|------------------|
|------------------|------------------|
|-8-7--------------|-7--8----3-2--0~--|
|-----8-7-5-7-8-7--|-7--8----3-2--0-~-|
|------------------|-7*-8*---3-2--0~--|

|------------------------------------------------------------------------|
|------Listen close for this part---(its hard)---------------------------|
|------------------------------------------------------------------------|
|-0~---------------------------------------------------------------------|
|-0~-8h10-7h8-5h7-3-1~-10h12-8h10-7h8-5-3~--12h13-10h12-8h10-7-5~-7537---|
|-0~---------------------------------------------------------------------|


|----------------------------------------------------|
|----------------------------------------------------|
|----------------------------------------------------|
|-22----------22-------------------------------------|
|----55-33-55----55-33-55--55-33-22-33-55-33-22-33---|
|----------------------------------------------------|
[ Tab from: http://www.guitartabs.cc/tabs/r/rifles_at_recess/dance_on_your_grave_tab.html ]
    hit everyone twice!                    after when its palmed
|----------------------------------------|-------------------------|
|----------6-8-10-11-13-11-10-8-6--------|-13-11-10-8-11-10-13-11--|  pff figure
|-3-5-7-9--------------------------9-7-5-|-------------------------|  the rest
|----------------------------------------|-------------------------|  out by
|----------------------------------------|-------------------------| yourself
|----------------------------------------|-------------------------|  (i cant)


|-----------------------------------------------------|
|-----------------------------------------------------|
|-----------------------------------------------------|
|0~------------00----------000-----------00-----------|
|0~------------00----------000-----------00-----------|
|0~------------00----------000-----------00-----------|
               pp          ppp           pp

They do a lot of crazy fills and weird things that dont make sence
in this part.. so just do what i wrote and it will be easier and sound
good enough.. but if you wish.. go for it, figure out the hard stuff!

|--------------------------------------------------------------|
|--------------------------------------------------------------|
|--------------------------------------------------------------|
|----1p0------3p0---1p0---1p0----1p0--------5-3-2-2--(5-2-3-2)-|
|-------------------------------------------5-2-3-2--(5-2-3-2)-|
|-00-----0000-----0------0----00------0000--5-2-3-2--(5-2-3-2)-|
  pp     pppp     p      p    pp      pppp            p p p p


|------------------12~~---15~~-----------15-13-12------------|
|----------------------------------12-13----------15-12------|more then once
|-"dododo"--/-14~~--------------14---------------------------|
|------------------------------------------------------------|
|------------------------------------------------------------|
|------------------------------------------------------------|


|------------------------------------------------------|
|------------------------------------------------------|this isnt right. but i
|-------speed!-------speed!----------------------------| gave up, soo you figure
|-3-2-1--0000--3-2-1-0000------------------------------|it out . then tell me
|-3-2-1--0000--3-2-1-0000------------------------------|
|-3-2-1--0000--3-2-1-0000------------------------------|
  p p p  pppp  p p p ppp

 Ok so it isnt 100% right.. but it sounds not bad.. so if you can play this. figure out 
else like the harmonies. and fills.. then .. send it to me!.. and.. there is no RAR tabs 
if you even checked this out.. email at judd_123@hotmail.com and .. let me know the mistakes and stuff


Since im on a tab roll.. i figured this out to!

Gone
|-----------------------------------------------|
|-------7-7-------7-7--------7-7-------7-7------|
|------9-9-9-----9-9-9------9-9-9-----9-9-9-----|
|-----------0---------0----------0---------0----|
|-----------------------------------------------|
|--0-----------0---------0----------0-----------|

                                  slow down towards end
|-------------------------------------------|---0~~---|
|-----7-7-------7-7-------7-7------7-7------|---6~~---|
|----9-9-9-----9-9-9-----9-9-9----9-9-9-----|---7~~---|
|---------0---------0---------0--------0----|---0~~---|
|-------------------------------------------|---------|
|--9---------9---------8---------8----------|---------|

 ok .. im done.  if you wanna add something. or if you checked this out.. email me 
tell me what you think
Comments