Riddlin Kids - Take Chords & Tabs

 

Take Chords & Tabs

Riddlin Kids Chords & Tabs

Version: 1 Type: Bass Tab 0 ratings
1 star 2 stars 3 stars 4 stars 5 stars
comments

Take Bass Tab

Riddlin kids-
Take
Tabbed by mavrick45


Part one
G--------------------------------------------------------------------------------|
D--------------------------------------------------------------------------------|   X3
A------------------------2-2-2-2-2-2-2-2---0-0-0-0------------0-0-0-0---2-2-2-2--|
E---0-0-0-0-0-0-0-0-----------------------------------4-4-4----------------------|


Part two
G-------------------------------------------------------------------------------------|
D---2-2-2-2-2-2-2-2-------------------------------------------------------------------|
A------------------------2-2-2-2-2-2-2-2---0-0-0-0-----------------0-0-0-0---2-2-2-2--|
E---------------------------------------------------------4-4-4-4---------------------|

Part one
[ Tab from: http://www.guitartabs.cc/tabs/r/riddlin_kids/take_btab.html ]

Part three
G-------------------------------------------------------------------------------------|
D------------------------------------------------2------------------------------------|
A---4-4-4-4-4-4-4-4---5-5-5-5-5-5-5-5------------------------------0-0-0-0---2-2-2-2--|
E----------------------------------------------------0---4-4-4-4----------------------|

Part one      X2
Part two
Part one
Part three    X2


Part four
G------------------------------------------------------|
D---2-2-2-2--------------------------------------------|         X8
A--------------2-2-2-2--------------0-0-0-0------------|
E--------------------------4-4-4-4---------------------|

Rest

Part four   X5
Part three


Ending
G--------|
D---2----|
A--------|
E--------|
Comments