Riddlin Kids - Nowhere To Run Chords & Tabs

 

Nowhere To Run Chords & Tabs

Riddlin Kids Chords & Tabs

Version: 1 Type: Bass Tab 0 ratings
1 star 2 stars 3 stars 4 stars 5 stars
comments

Nowhere To Run Bass Tab

Riddlin kids
Nowhere to Run
Tabbed by mavrick45          mavrick_45@sugarray.com

Part One
G-----------------------------------------------------
D-----------------------------------------------------  X4
A----------4-4-4-4-4-4----0-0-0-0-0-0-0-0-0-0-0-0-----
E--0-0-0----------------------------------------------

Party Two
G---------------------------------------------------------
D---------------------------------------------------------  X4
A-------------------4-4-4-4-4-4---0-0-0-0-0-0-0-0-0-0-0-0-
E---0-0-0-0-0-0-------------------------------------------

Part Three
G---------------------------------------------------------
D---------------------------------------------------------
A------------------------0-0-0-0-0-0-0-0------------------
E---2-2-2-2-2-2-2-2---------------------------------------

[ Tab from: http://www.guitartabs.cc/tabs/r/riddlin_kids/nowhere_to_run_btab.html ]
Part Four
G---------------------------------------------------------
D---------------------------------------------------------
A-------------------------0-0-0-0-----2-0------2-0--------
E---2-2-2-2-2-2-2-2----------------------0---------0------


Part Five
G-----------------------------------------------------------------------------------
D----------------------1-1-1-1-1-1-1-1----------------------------------------------  X2
A-------------------------------------------------------------------0-0-0-0-0-0-0-0-
E--0-0-0-0-0-0-0-0-------------------------4-4-4-4-4-4-4-4--------------------------


Part Six
G----------------------------------
D--------------------------0---0-0-   X4
A----------------------------------
E---0---0-0----2---2-2-------------

Part Two      X4
Part three
Part four
Part five      X2
Part six       X4

Part seven
G--------------------------------------------------------------------------------------
D---2-2-2-2-2-2-2-2----1-1-1-1-1-1-1-1-------------------------------------------------  X4
A----------------------------------------------------------------------0-0-0-0-0-0-0-0-
E-------------------------------------------------4-4-4-4-4-4-4-4----------------------

Part five   X4
Part six     X4
Comments