Riddlin Kids - Inside My Head Chords & Tabs

 

Inside My Head Chords & Tabs

Riddlin Kids Chords & Tabs

Version: 1 Type: Bass Tab 0 ratings
1 star 2 stars 3 stars 4 stars 5 stars
comments

Inside My Head Bass Tab

Riddlin kids: inside my head
Tabbed by mavrick45


G--11-15-16-14-15-----]
D---------------------------]           X4
A---------------------------]
E---------------------------]


G-----------------------]
D-----------------------]        X2
A-----------------------]
E--2---2----2----2-----]


G--------------------------------]
D--------------------------------]
A--------------------------------]
E--222222222222------]


G---------------------]
D---------------------]
A---------------------]
E--2-2-2-2-2-2-2-2---]


G-----------------------------------------------------------------------
D-----------------------------------------------------------------------     X2
A--------------------0-0-0-0-0-0-0-0--2-2-2-2-2-2-2-2--0-0-0-0--2-2-2-2-
E---2-2-2-2-2-2-2-2-----------------------------------------------------

[ Tab from: http://www.guitartabs.cc/tabs/r/riddlin_kids/inside_my_head_btab.html ]
G----------------------------------------------------------------------------
D----------------------------------------------------------------------------  X2
A----------------------------------0-0-------------0-0-0-0--2-2-2-2-4-4-4-4--
E---2-2-2-2-2-2--0-0--2-2-2-2-2-2--------2-2-2-2-----------------------------


Part one
G-----------------------------------------------------]
D-----------------------------------------------------]          X2
A--------4-4-4--0-0--2-2-2----------------------------]
E---2-2---------------------0-0--0-0-0--2-------------]

Part two
G-----------------------------------------------------------------------
D---------------------------------------------------------------2-2-2-2-     X2
A--------------------0-0-0-0-0-0-0-0--2-2-2-2-2-2-2-2--4-4-4-4----------
E---2-2-2-2-2-2-2-2-----------------------------------------------------


Part one   X4
Part two   X2
Part one   X2

   


Bridge
G---------------------------------------------------------------------
D---------------------------------------------------------------------        X2
A-------------------------------------0-0-0-0-0-0-0-0-----------4--2--
E---2-2-2-2-2-2-2-2--0-0-0-0-0-0-0-0-------------------0-0-0-0--------


Part two   X2



G-----------------------
D-----------------------         X4
A-----------------------
E---2-2-2-2-2-2---0-0---

Hold last note last time.
Comments