Riddlin Kids - I Feel Fine Chords & Tabs

 

I Feel Fine Chords & Tabs

Riddlin Kids Chords & Tabs

Version: 7 Type: Tab 0 ratings
1 star 2 stars 3 stars 4 stars 5 stars
comments

I Feel Fine Tab

sounds good through my amp, matches the song real well. standard tuning, and play loud!

intro:            play intro 3x
e|-----------------------|----------------------|
B|--------6--------------|----------------------|
G|--66----------6--------|----------------------|
D|--66--6----6-----6-----|--55-------77---------|
A|--44-------------------|--55--4h5--77--4h5----|
E|-----------------------|--33-------55---------|

right now...
PM                    play 2x
e|-------------------------------------------------------------------------|
B|-------------------------------------------------------------------------|
G|--5-5-5-5-5-5-5-5-----5-5-5-5-5-5-5--------------------------------------|
D|--5-5-5-5-5-5-5-5-----5-5-5-5-5-5-5-----3-3-3-3-3-3-3-3-5-5-5-5-5-5-5-5--|
A|--3-3-3-3-3-3-3-3-----3-3-3-3-3-3-3-----3-3-3-3-3-3-3-3-5-5-5-5-5-5-5-5--|
E|-------------------0-----------------0--1-1-1-1-1-1-1-1/3-3-3-3-3-3-3-3--|

[ Tab from: http://www.guitartabs.cc/tabs/r/riddlin_kids/i_feel_fine_tab_ver_7.html ]
pre chorus- "one, two, three, four"
e|----------------------|
B|----------------------|
G|----------------------|
D|--5----5----5----5----|
A|--5----5----5----5----|
E|--3----3----3----3----|

"looks like im alone again..."
chorus x3
e|-----------------------|
B|-----------------------|
G|--5---7----------------|
D|--5---7----3----5------|
A|--3---5----3----5------|
E|-----------1----3------|

repeat intro 2x

"i dont know whats the matter with me..."
outro
e|--------------------------------------------|
B|--------------------------------------------|
G|--5555555577777777--------------------------|
D|--5555555577777777-5555555577777777---------|
A|--3333333355555555-5555555577777777---------|
E|-------------------3333333355555555---------|

"i feel fine..."
e|-------------------------|
B|-------------------------|
G|-------------------------|
D|--55-------77---------33-|
A|--55--4h5--77--4h5----33-|
E|--33-------55---------11-|


thats how i play it. If you want any others email me at hitemup44@aol
Comments