Riddlin Kids - I Feel Fine Chords & Tabs

 

I Feel Fine Chords & Tabs

Riddlin Kids Chords & Tabs

Version: 5 Type: Tab 0 ratings
1 star 2 stars 3 stars 4 stars 5 stars
comments

I Feel Fine Tab

   
-------------------------------------------------------------------------------
			     I FEEL FINE - RIDDLIN' KIDS
-------------------------------------------------------------------------------

By:ZERO IS GREAT MAN
STANDARD TUNNING(low TO HIGH) EADGBe
PLAYED WITH DISTORTION, AND MAYBE A LITTLE CHORUS.

Guitar 1: Intro/Interlude/Outro
e|---------------------------------------------|
B|--------6-------------------2/4----------4/6-|
G|-6-6--------6--------------------------------|
D|-6-6--6---6---6--(x3)------------------------|(x2)
A|---------------------------------------------|
E|-----------------------2-2-------/4-4--------|

Guitar 2: Intro/Interlude/Outro
e|----------------------------------------------|
B|----------------------------------------------|
G|-6-6------------------------------------------|
D|-6-6-------------------4-4-------/6-6---------|(x2)
A|-4-4-(x3)--------------4-4-------/6-6---------|
E|-----------------------2-2-------/4-4---------|

Guitar 1: Verse
e|---------------------------------------|
B|---------------------------------------|
G|-6-6-6-6-6-6-6-6-6-6-------------------|
D|-6-6-6-6-6-6-6-6-6-6--4-4-4-4--6-6-6-6-|(x2)
A|-4-4-4-4-4-4-4-4-4-4--4-4-4-4--6-6-6-6-|
E|----------------------2-2-2-2--4-4-4-4-|
 |---------------pm----------------------|

Guitar 2: verse
e|---------------------------------------|
B|---------------------------------------|
G|-----------------4/6-------------------|
D|-----------------4/6-------------------|(x2)
A|-----------------2/4-------------------|
E|-----------------------------------4/6-|

Both Guitars: Pre-Chorus
e|------------|
B|------------|
G|------------|
D|-4-4-4-4--6-|(One, Two, Three, Four, looks like I'm alone again.")
A|-4-4-4-4--6-|
E|-2-2-2-2--4-|
[ Tab from: http://www.guitartabs.cc/tabs/r/riddlin_kids/i_feel_fine_tab_ver_5.html ]
Guitar 1: Chorus
e|----------------------------------------|        |-----------------|
B|----------------------------------------|        |-----------------|
G|-6-6--8-8------------6-6--8-8-----------|        |-6-6-6-6-6-6-6-6-|
D|-6-6--8-8--4-4--6-6--6-6--8-8--4-4--6-6-|(x2then)|-6-6-6-6-6-6-6-6-|
A|-4-4--6-6--4-4--6-6--4-4--6-6--4-4--6-6-|        |-4-4-4-4-4-4-4-4-|
E|-----------2-2--4-4------------2-2--4-4-|        |-----------------|

Guitar 2: Chorus
e|-----------------------------|        |-----------------|
B|------------6----------------|        |-----------------|
G|----5-----------6----6-6-6-6-|        |-6-6-6-6-6-6-6-6-|
D|-6--3--8--6---6---6--4-4-4-4-|(x2then)|-x-x-x-x-x-x-x-x-|
A|-4-----6---------------------|        |-4-4-4-4-4-4-4-4-|
E|-----------------------------|        |-----------------|

Both Guitars: Bridge
e|------------------------------------------------------------------|
B|------------------------------------------------------------------|
G|-6-6-6-6-6-6-6--8-8-8-8-8-8-8-8-----------------------------------|
D|-6-6-6-6-6-6-6--8-8-8-8-8-8-8-8--4-4-4-4-4-4-4-4--6-6-6-6-6-6-6-6-|
A|-4-4-4-4-4-4-4--6-6-6-6-6-6-6-6--4-4-4-4-4-4-4-4--6-6-6-6-6-6-6-6-|
E|---------------------------------2-2-2-2-2-2-2-2--4-4-4-4-4-4-4-4-|

Intro/INTERLUDE/OUTRO         CHORUS
G.1  G.2                      G.1    G.2
VERSE1                        BRIDGE
G.1  G.2                      BOTH GUITARS
PRE-CHORUS                    CHORUS
BOTH GUITARS                  G.1(VERSE)AFTER 2X G.2
CHORUS                        INTRO/INTERLUDE/OUTRO
G.1  G.2                      G.1   G.2 
INTRO/INTERLUDE/OUTRO
G.1  G.2
VERSE2
G.1  G.2
PRE-CHORUS
BOTH GUITARS

===============================================================================
Comments