Riddlin Kids - I Feel Fine Chords & Tabs

 

I Feel Fine Chords & Tabs

Riddlin Kids Chords & Tabs

Version: 3 Type: Tab 0 ratings
1 star 2 stars 3 stars 4 stars 5 stars
comments

I Feel Fine Tab

Artist: Riddlin Kids
Tilte: I feel fine
Standard Tuning
Mich Manaras

Intro: 2x
e------------------------        -----------------
B------------------------        -----------------
G------------10----8-----        -----------------
D-11-11---11----11---11--x3 then -4-4-----6-6-----
A-11-11---11-------------        -4-4-3h4-6-6-3h4-
E-9--9----9--------------        -2-2-----4-4-----

Verse:(palm mute where there are dots)
e-------------------------------------------
B-------------------------------------------
G--6-6-6-6----------------------------------
D--6-6-6-6--6-6-6-6-------4-4-4-4--6-6-6-6-- x2
A--4-4-4-4--6-6-6-6-3h4p3-4-4-4-4--6-6-6-6--
E-----------4-4-4-4-------2-2-2-2--4-4-4-4--
   . . . .  . . . .       . . . .  . . . .
[ Tab from: http://www.guitartabs.cc/tabs/r/riddlin_kids/i_feel_fine_tab_ver_3.html ]
Pre-Chorus:
e-----------
B-----------
G-----------
D--4-4-4-4--
A--4-4-4-4--
E--2-2-2-2--

Chorus:(on the 4th time the last 2 notes are played longer)
e-----------------------------
B-----------------------------
G--6-6---8-8---11-11---13-13--
D--6-6---8-8---11-11---13-13-- x4
A--4-4---6-6---9--9----11-11--    
E-----------------------------

Bridge:(on the 2nd time the last note is played longer)
e--------------------------------------
B--------------------------------------
G--------------------------------------
D--8-8-8-8--6-6-6-6--4-4-4-4--6-6-6-6-- x2
A--8-8-8-8--6-6-6-6--4-4-4-4--6-6-6-6--
E--6-6-6-6--4-4-4-4--2-2-2-2--4-4-4-4--

End on:
e-------
B-------
G--6-6--
D--6-6--
A--4-4--
E-------

Thats all! Listen to the song for all the timings.
Don't be afraid to tell me if the tab sucks
but i'm sure its right.
Comments