Riddlin Kids - I Feel Fine Chords & Tabs

 

I Feel Fine Chords & Tabs

Riddlin Kids Chords & Tabs

Version: 2 Type: Tab 0 ratings
1 star 2 stars 3 stars 4 stars 5 stars
comments

I Feel Fine Tab

   
Riddlin' Kids - I Feel Fine
Tabbed by: Custom 

Tuning: Standard (E A D G B E)




Intro
E|---------------------------||
B|------6--6-----------------||
G|------6--6-----10---6------|| x3
D|------6--6---6----6---6----||
A|---------------------------||
E|---------------------------||


then...
E|---------------------------||
B|---------------------------||
G|---------------------------||
D|---------------------------||
A|-------3-4-------3-4-------||
E|---2-2-------4-4-----------||

Repeat above twice for intro


[ Tab from: http://www.guitartabs.cc/tabs/r/riddlin_kids/i_feel_fine_tab_ver_2.html ]
Verse
E|--------------------------------------------------------------------------||
B|--------------------------------------------------------------------------||
G|-----6--------------------------------------------------------------------|| x2
D|-----6-x8---6----------------4------6-------------------------------------||
A|-----4------6-x5----3h4p3----4-x8---6-x8----------------------------------||
E|------------4----------------2------4-------------------------------------||
     [---------------palm mute-----------]


then...
E|------------------||
B|------------------||
G|------------------||
D|---4--4--4--4-----||
A|---4--4--4--4-----||
E|---2--2--2--2-----||


chorus
E|-------------------------------------||
B|-------------------------------------||
G|----6-6---8-8---6-6---8-8------------||
D|----6-6---8-8---4-4---6-6------------||
A|----4-4---6-6------------------------||
E|-------------------------------------||


this is played over the chorus..repeat a couple, two, three times 
E|----9---8---9---8---9---8---11---8----------------------||
B|------9---9---9---9---9---9----9---9--------------------||
G|--------------------------------------------------------||
D|--------------------------------------------------------||
A|--------------------------------------------------------||
E|--------------------------------------------------------||

Comments