Riddlin Kids - I Feel Fine Chords & Tabs

 

I Feel Fine Chords & Tabs

Riddlin Kids Chords & Tabs

Version: 1 Type: Tab 0 ratings
1 star 2 stars 3 stars 4 stars 5 stars
comments

I Feel Fine Tab

I feel fine
Riddlin Kids

verses
--------------------------
--------------------------
--------------------------play all twice 
-6-x8---------------------
-4-------6-x8--4-x8--6x8--
---------4-----2-----4----
Right now....

------------------------
------------------------
------------------------
------------------------
-4-x8-----------------6-x1
-2--------------------4-
one two three four..looks.....


chorus:

[ Tab from: http://www.guitartabs.cc/tabs/r/riddlin_kids/i_feel_fine_tab.html ]
----------------------
----------------------
-66------88-----------x2
-66------88----44--66-
-44------66----44--66-
---------------22--44-
 I feel fine...


interlude
------------------------------
------------------------------
------------------------------
-88888888-66666666-44444444---
-88888888-66666666-44444444---
-66666666-44444444-22222222---

Everything repeats a lot... just listen to the song
email me for anything you need ( more songs, questions whatever...)
notorious_sov@hotmail.com
Comments