Riddlin Kids - I Feel Fine Chords & Tabs

 

I Feel Fine Chords & Tabs

Riddlin Kids Chords & Tabs

Version: 1 Type: Bass Tab 0 ratings
1 star 2 stars 3 stars 4 stars 5 stars
comments

I Feel Fine Bass Tab

   
Riddlin' Kids
I Feel Fine
Bass Tab

Standard Tuning

I broke it up into manageable pieces with the complete order at the end.
I also put the number of times for each next to each section and its all
there in order. any questions, email arcee49@hotmail.com


Intro: Guitar Only

END INTRO
G|--------------------------------|
D|--------------------------------|
A|--------------------------------|   x1
E|2-2-2-2-4------/4---------------|

CHORUS
G|-------------------------|
D|-------------------------|
A|4-4----6-6---------------|   x3
E|--------------2-2----4-4-|

END CHORUS
G|------------------------------|
D|------------------------------|
A|4-4----6-6--------------------|  x1
E|--------------2-2-2-2-2-2-2-2-|

PRE-VERSE
G|------------------------------------------------|
D|------------------------------------------------|
A|4-4-4-4-4-4-4-4-4-4-4-4-4-4-4-4-4-4-4-4-4-4-4-4-| 
E|------------------------------------------------|

G|--------------------------------|
D|--------------------------------|
A|--------------------------------|  x2
E|2-2-2-2-4-4-4-4-----------------|

VERSE
G|----------------------------------------------------------------|
D|----------------------------------------------------------------|
A|4-4-4-4-4-4-4-4-------------------------------------------------|  x2
E|----------------4-4-4-4-4-4-4-4-2-2-2-2-2-2-2-2-4-4-4-4-4-4-4-4-|

END INTRO
G|--------------------------------|
D|--------------------------------|
A|--------------------------------|   x1
E|2-2-2-2-4------/4---------------|

CHORUS
G|-------------------------|
D|-------------------------|
A|4-4----6-6---------------|   x3
E|--------------2-2----4-4-|

END CHORUS
G|------------------------------|
D|------------------------------|
A|4-4----6-6--------------------|  x1
E|--------------2-2-2-2-2-2-2-2-|
[ Tab from: http://www.guitartabs.cc/tabs/r/riddlin_kids/i_feel_fine_btab.html ]
PRE-BRIDGE
G|----------------|
D|----------------|
A|----------------|   x1
E|4-4-4-4-4-4-4-4-|

BRIDGE
G|------------------------------------------------|
D|------------------------------------------------|
A|------------------------------------------------|   x1
E|6-6-6-6-6-6-6-6-4-4-4-4-4-4-4-4-2-2-2-2-2-2-2-2-|

END BRIDGE 1
G|--------------------|
D|--------------------|
A|--------------------|   x1
E|4-4-4-4-4-4-4-4-----|

BRIDGE
G|------------------------------------------------|
D|------------------------------------------------|
A|------------------------------------------------|   x1
E|6-6-6-6-6-6-6-6-4-4-4-4-4-4-4-4-2-2-2-2-2-2-2-2-|

END BRIDGE 2
G|--------------------|
D|--------------------|
A|--------------------|   x1
E|4-4--4-4--4-4--4-4--|

PAUSE

CHORUS
G|-------------------------|
D|-------------------------|
A|4-4----6-6---------------|   x3
E|--------------2-2----4-4-|

END CHORUS
G|------------------------------|
D|------------------------------|
A|4-4----6-6--------------------|  x1
E|--------------2-2-2-2-2-2-2-2-|

DITTY 1
G|----------------|
D|----------------|
A|----------------|  x1
E|2-2-2-2-2-2-2-2-|

PRE-VERSE
G|------------------------------------------------|
D|------------------------------------------------|
A|4-4-4-4-4-4-4-4-4-4-4-4-4-4-4-4-4-4-4-4-4-4-4-4-| 
E|------------------------------------------------|

G|--------------------------------|
D|--------------------------------|
A|--------------------------------|  x2
E|2-2-2-2-4-4-4-4-----------------|

END
G|----|
D|----|
A|4-4-|
E|----|

END INTRO x1
CHORUS x3
END CHORUS x1
PRE-VERSE x2
VERSE x2
END INTRO x1
CHORUS x3
END CHORUS x1
BRIDGE x1
END BRIDGE 1 x1
BRIDGE x1
END BRIDGE 2 x1
PAUSE
CHORUS x3
END CHORUS x1
DITTY 1 x1
PRE-VERSE x2
END x1
Comments