Riddlin Kids - Crazy Chords & Tabs

 

Crazy Chords & Tabs

Riddlin Kids Chords & Tabs

Version: 1 Type: Tab 0 ratings
1 star 2 stars 3 stars 4 stars 5 stars
comments

Crazy Tab

   
-------------------------------------------------------------------------------
			     Crazy - Riddlin kids
-------------------------------------------------------------------------------

Tabbed by:Zero is great man
Play with distortion
Tuning:EADGBe

Intro                      Fill
e|------------------|    e|---------------------------------|
B|------------------|    B|---------------------------------|
G|-7-7-7-7----------|(x4)G|---------------------------------|(x4)
D|-7-7-7-7--5-5-5-5-|    D|---4---4---4---4---4---4---4---4-|
A|-5-5-5-5--5-5-5-5-|    A|-5---5---5---5---5---5---5---5---|
E|----------3-3-3-3-|    E|---------------------------------|
[ Tab from: http://www.guitartabs.cc/tabs/r/riddlin_kids/crazy_tab.html ]
Verse
e|--------------------------------------------------------------------|
B|--------------------------------------------------------------------|
G|-7-7-7-7-7-7-7-7-------------------4-4-4-4-4-4-4-4------------------|
D|-7-7-7-7-7-7-7-7--5-5-5-5-5-5-5-5--4-4-4-4-4-4-4-4--5-5-5-5-5-5-5-5-|
A|-5-5-5-5-5-5-5-5--5-5-5-5-5-5-5-5--2-2-2-2-2-2-2-2--5-5-5-5-5-5-5-5-|
E|------------------3-3-3-3-3-3-3-3-------------------3-3-3-3-3-3-3-3-|

Pre-chorus:
e|------------------------------------|
B|------------------------------------|
G|-7-7-7-7--4-4-4-4-------------------|
D|-7-7-7-7--4-4-4-4-------------------|
A|-5-5-5-5--2-2-2-2--5-5-5-5--7-7-7-7-|
E|-------------------3-3-3-3--5-5-5-5-|

Chorus:                                   2nd Fill: (Play with wah)    
e|------------------------------------| e|---|
B|------------------------------------| B|---|
G|-7-7-7-7--------------------9-9-9-9-| G|-9-|
D|-7-7-7-7--5-5-5-5--7-7-7-7--9-9-9-9-| D|-x-|(x8)
A|-5-5-5-5--5-5-5-5--7-7-7-7--7-7-7-7-| A|-7-|
E|----------3-3-3-3--5-5-5-5----------| E|---|

Outro:(end on this)
e|-----|
B|-----|
G|-7-7-|
D|-7-7-|
A|-5-5-|
E|-----|


| /  slide up
| \  slide down
| h  hammer-on
| p  pull-off
| ~  vibrato
| +  harmonic
| x  Mute note

This is a easy song to play, just listen to get the right timing.
Please feel free to comment or correct.

===============================================================================
Comments