Riddlin Kids - Crazy Chords & Tabs

 

Crazy Chords & Tabs

Riddlin Kids Chords & Tabs

Version: 1 Type: Bass Tab 0 ratings
1 star 2 stars 3 stars 4 stars 5 stars
comments

Crazy Bass Tab

   
-------------------------------------------------------------------------------
			     Crazy - Riddlin Kids
-------------------------------------------------------------------------------

Tabbed By : Zero is great man
Tuning: EADG

Intro
G|------------------|
D|------------------|
A|-5-5-5-5----------|
E|----------3-3-3-3-|

Verse
G|--------------------------------------------------------------------|
D|--------------------------------------------------------------------|
A|-5-5-5-5-5-5-5-5-------------------2-2-2-2-2-2-2-2------------------|
E|------------------3-3-3-3-3-3-3-3-------------------3-3-3-3-3-3-3-3-|
[ Tab from: http://www.guitartabs.cc/tabs/r/riddlin_kids/crazy_btab.html ]
Pre-Chorus
G|------------------------------------|
D|------------------------------------|
A|-5-5-5-5--2-2-2-2-----------5-5-5-5-|
E|-------------------3-3-3-3----------|

Chorus
G|---------------------------------------------|
D|---------------------------------------------|
A|-5-5-5-5-----------------------------7-7-7-7-|
E|----------3-3-3-3--5-5-5-5--3-3-3-3----------|

Outro
G|-----|
D|-----|
A|-5-5-|
E|-----|

| /  slide up
| \  slide down
| h  hammer-on
| p  pull-off
| ~  vibrato
| +  harmonic
| x  Mute note

This is a very easy tab to play, so enjoy!
===============================================================================
Comments