Riddlin Kids - Blind Chords & Tabs

 

Blind Chords & Tabs

Riddlin Kids Chords & Tabs

Version: 1 Type: Tab 0 ratings
1 star 2 stars 3 stars 4 stars 5 stars
comments

Blind Tab

   
-------------------------------------------------------------------------------
			    Blind - Riddlin Kids
-------------------------------------------------------------------------------

Tabbed by: Zero is great man
Play with Distortion
Tuning: EADGBe

Intro/Verse
e|------------------| e|----------------------|
B|------------------| B|----------------------|
G|-5-5-x-x-x--------| G|-5-5-x-x-x-x----------|
D|-5-5-x-x-x--2-2-3-| D|-5-5-x-x-x-x--2-2-3-5-|
A|-3-3-x-x-x--2-2-3-| A|-3-3-x-x-x-x--2-2-3-5-|
E|------------0-0-1-| E|--------------0-0-1-3-|

Pre-Chorus
e|-----------------------------------|
B|-----------------------------------|
G|-5-5-5-5-------------------5-5-5-5-|
D|-5-5-5-5--5-3-x-x-3-x-x-5--5-5-5-5-|
A|-3-3-3-3--5-3-x-x-3-x-x-5--3-3-3-3-|
E|----------3-1-x-x-1-x-x-3----------|

Chorus
e|------------------------------------|
B|------------------------------------|
G|-5-5-5-5----------------------------|
D|-5-5-5-5--3-3-3-3--7-7-7-7--5-5-5-5-|
A|-3-3-3-3--3-3-3-3--7-7-7-7--5-5-5-5-|
E|----------1-1-1-1--5-5-5-5--3-3-3-3-|
[ Tab from: http://www.guitartabs.cc/tabs/r/riddlin_kids/blind_tab.html ]
Solo
e|-------------------------------------------------|
B|-6-5h-6-5h-6-5h-6-5h-6-5h-6-5h-6-5h-6-5h-8-6-5---|
G|-----------------------------------------------5-|
D|-------------------------------------------------|
A|-------------------------------------------------|
E|-------------------------------------------------|

e|-------------------------------------------------|
B|-6-5h-6-5h-6-5h-6-5h-6-5h-6-5h-6-5h-6-5h-6-5-6-8-|
G|-------------------------------------------------|
D|-------------------------------------------------|
A|-------------------------------------------------|
E|-------------------------------------------------|

e|--------------------------------------|
B|--------------------------------------|
G|-5-4-5-7-5-7-9-7-9-11-9-14-12~--------|
D|--------------------------------------|
A|--------------------------------------|
E|--------------------------------20\10-|
                                 -P.S-(pick scrape)


| /  slide up
| \  slide down
| h  hammer-on
| p  pull-off
| ~  vibrato
| +  harmonic
| x  Mute note

There is everything, I think the solo may be a little off,
so please correct it if it needs correction.
===============================================================================
Comments