Riddlin Kids - Blind Chords & Tabs

 

Blind Chords & Tabs

Riddlin Kids Chords & Tabs

Version: 1 Type: Bass Tab 0 ratings
1 star 2 stars 3 stars 4 stars 5 stars
comments

Blind Bass Tab

-------------------------------------------------------------------------------
			    Blind - Riddlin Kids
-------------------------------------------------------------------------------

Tabbed by: Zero is great man
Play with Distortion
Tuning: EADGBe
[ Tab from: http://www.guitartabs.cc/tabs/r/riddlin_kids/blind_btab.html ]
Intro/Verse:
G|------------------| G|----------------------|
D|------------------| D|----------------------|
A|-3-3-x-x-x--------| A|-3-3-x-x-x-x----------|
E|------------0-0-1-| E|--------------0-0-1-3-|

Pre-Chorus:
G|-----------------------------------|
D|-----------------------------------|
A|-3-3-3-3-------------------3-3-3-3-|
E|----------3-1-x-x-1-x-x-3----------|

Chorus:
G|------------------------------------|
D|------------------------------------|
A|-3-3-3-3----------------------------|
E|----------1-1-1-1--5-5-5-5--3-3-3-3-|


Outro:
G|------------------| 
D|------------------| 
A|-3-3-x-x-x--------| 
E|------------0-0-1-|
Comments