Riddlin Kids - Anyday Now Chords & Tabs

 

Anyday Now Chords & Tabs

Riddlin Kids Chords & Tabs

Version: 1 Type: Bass Tab 0 ratings
1 star 2 stars 3 stars 4 stars 5 stars
comments

Anyday Now Bass Tab

Riddlin kids
Anyday now
Tabbed  by mavrick45	mavrick45@sugarray.com
I know this isnít 100% correct but nobodyís perfect so just GET OFF MY BACK!!


Part one
G------------------------------------------------
D------------------------------------------------     X2
A---------------0-0---2----------------0-0---2--
E---0-0---4-----------------0-0---4-------------


Part two
G--------------------------------------------------------------------------
D--------------------------------------------------------------------------   X2
A-----------------------------------------------------------0-0-0-0-0-0-0-0-
E---0-0-0-0-0-0-0-0-0-0-0-0-0-0-0-0----2-2-2-2-2-2-2-2----------------------


Part one   X2
Part two   X2
Part one   X2

[ Tab from: http://www.guitartabs.cc/tabs/r/riddlin_kids/anyday_now_btab.html ]
Part three
G--------------
D--------------
A--------------
E---0-0-0-0ó---


Part four
G------------------------------------------------
D------------------------------------------------   X6
A---------------3-3-3-3---2-2-2-2---0-0-0-0-----
E---0-0-0-0-------------------------------------

Part one   X4 

Ending
G--------
D--------
A--------
E---0-0--



here is a tip from NachoLyz 

If you want to play this tab how Mark plays it live, then when doing an open fret
move down a couple of cords and hold 7. Here is an example:

Part Two
G------------------------------------------------------------7-7-7-7-7-7-7-7-
D---7-7-7-7-7-7-7-7-7-7-7-7-7-7-7-7------------------------------------------
A------------------------------------------------------------0-0-0-0-0-0-0-0-
E---0-0-0-0-0-0-0-0-0-0-0-0-0-0-0-0----2-2-2-2-2-2-2-2-----------------------

thanx nacholyz! ^_^
Comments