Ricky Skaggs - Wildwood Flower Chords & Tabs

 

Wildwood Flower Chords & Tabs

Ricky Skaggs Chords & Tabs

Version: 1 Type: Tab 0 ratings
1 star 2 stars 3 stars 4 stars 5 stars
comments

Wildwood Flower Tab

E-------0----------0--------3-----------0---0---0---]
B-------1------1---1--------0-----------1---1---1---]
G-----0-0--0h2-----0--------0-----------0---0---0---]
D--2-3--2--------2-2-3-2-0--0-0h2-2-----2---2---2---] TIMES TWO
A-------3----------3--------2-------2-3-3---3---3---]
E---------------------------3-------------2---3---2-]
[ Tab from: http://www.guitartabs.cc/tabs/r/ricky_skaggs/wildwood_flower_tab.html ]
E----0-0-0-0---------------------------------------------------0---0---0--]
B--1--------2-1------------------------------------------------1---1---1--]
G-0-------------0-0-0h2---2-0----------------0-----------------0---0---0--]
D-----------------------3------0-0h2-0h2-0h2---2-0-0-0h2-0-----2---2---2--]
A-----------------------------3----------------------------2-3-3---3---3--]
E----------------------------------------------------------------2---3--2-]

  Then you play it over again. I dont know the solo. I will have my friend JOE figure it 
and i will tab it soon. He plays FLUTE not me.
Comments