Ricky Skaggs - Country Boy Chords & Tabs

 

Country Boy Chords & Tabs

Ricky Skaggs Chords & Tabs

Version: 1 Type: Tab 0 ratings
1 star 2 stars 3 stars 4 stars 5 stars
comments

Country Boy Tab

|-------------------------------------------------------------3-------------|
|---------------------------------------------------------------------------|
|-------------0-3-2-0------0--------------------------------0---------------|
|-------0-2-0----------0h3---0h3-0----------------------0h2-----------------|
|---0-2-----------------------------1p----1p--------0h2---------------------|
|-3------------------------------------h3-----h3-h3-------------------------|


[ Tab from: http://www.guitartabs.cc/tabs/r/ricky_skaggs/country_boy_tab.html ]
|----------------------------------------------------2--2-2-2--2--2-2-------|
|--------------------------------2--2-2-2--2--2-2-2--3--3-3-3--3--3-3-------|
|------------1--1-1-1--1--1-1-1--2--2-2-2--2--2-2-2--2--2-2-2--2--2-2-------|
|------------2--2-2-2--2--2-2-2--2--2-2-2--2--2-2-2-------------------------|
|------------2--2-2-2--2--2-2-2---------------------------------------------|
|-3-2--1--0-----------------------------------------------------------------|
|--------------------------------------------------------------------------|
|-----------------------------------------------2--2-2-2--2--2-2-2----------|
|-------------0-------------1--1-1-1--1--1-1-1--2--2-2-2--2--2-2-2----------|
|--------0h2----------------2--2-2-2--2--2-2-2--2--2-2-2--2--2-2-2----------|
|---0h2---------------------2--2-2-2--2--2-2-2------------------------------|
|-3----------------3-2-1-0--------------------------------------------------|



|--2--2-2-2--2--2-2-2---------------3~~~~~~~~~~-----------------------------|
|--3--3-3-3--3--3-3-3-------------------------------------------------------|
|--2--2-2-2--2--2-2-2------------0------------------------------------------|
|----------------------------0h2--------------------------------------------|
|------------------------0h2------------------------------------------------|
|----------------------3----------------------------------------------------|




|-------------------------------------------------------------3~~~~~~~~-----|
|---------------------------------------------------------------------------|
|-------------0-3-2-0------0--------------------------------0---------------|
|-------0-2-0----------0h3---0h3-0----------------------0h2-----------------|
|---0-2-----------------------------1p----1p--------0h2---------------------|
|-3------------------------------------h3-----h3-h3-------------------------|


That's it hope u enjoy it.


any questions comments or corrections e-mail me at superkid_999@hotmail.com
Comments