Rick Springfield - Jessies Girl Chords & Tabs

 

Jessies Girl Chords & Tabs

Rick Springfield Chords & Tabs

Version: 4 Type: Tab 0 ratings
1 star 2 stars 3 stars 4 stars 5 stars
comments

Jessies Girl Tab

Artist: Rick Springfield
Song: Jessie's Girl
Tabbed by: Jordan Boesch

NOTES: This is the exact intro he plays, EXACT!

[ Tab from: http://www.guitartabs.cc/tabs/r/rick_springfield/jessies_girl_tab_ver_4.html ]
E---------------------------------------------
B---------------------------------------------
G----7--7--------------------------7--7-------
D----7--7--7--7--9--9--5--5--7--7--7--7-------
A----5--5--7--7--9--9--5--5--7--7--5--5-------
E----------5--5--7--7--3--3--5--5-------------

E---------------------------------------------
B---------------------------------------------
G----7--7--------------------------7--7-------
D----7--7--7--7--9--9--5--5--7--7--7--7-------
A----5--5--7--7--9--9--5--5--7--7--5--5-------
E----------5--5--7--7--3--3--5--5-------------
Comments