Rick James - Super Freak Chords & Tabs

 

Super Freak Chords & Tabs

Rick James Chords & Tabs

Version: 1 Type: Bass Tab 0 ratings
1 star 2 stars 3 stars 4 stars 5 stars
comments

Super Freak Bass Tab

main riff

G--------------------------|
D--------------------------|
A--5--3--2--0---------2--0-|
E---------------0--3-------|


G-------------------------|
D-------------------------|
A--5--3--2--0--2-----2--0-|
E-----------------3-------|

[ Tab from: http://www.guitartabs.cc/tabs/r/rick_james/super_freak_btab.html ]
She's alright She's alright She's alright
G-------------------------|
D-------------------------|x3
A-----3-----5-------------|
E--1-----3-----5----------|


That girls alright with me
G-------------------------|
D-----2-------------------|
A-------------------------|
E--5-----1--0-------------|

Then slide up on the A string and begin the main riff till the end of the song


The main riff is really just repeated over and over....
There's nothing much different about the song beside the chorus


Tabbed by Heffy
Hefty_Heffy@yahoo.com
Comments