Rick Derringer - Rock N Roll Hoochie Koo Chords & Tabs

 

Rock N Roll Hoochie Koo Chords & Tabs

Rick Derringer Chords & Tabs

Version: 6 Type: Tab 0 ratings
1 star 2 stars 3 stars 4 stars 5 stars
comments

Rock N Roll Hoochie Koo Tab

   
#----------------------------------PLEASE NOTE---------------------------------#
#This file is the author's own work and represents their interpretation of the #
#song. You may only use this file for private study, scholarship, or research. #
#------------------------------------------------------------------------------##

                            ROCK AND ROLL HOOCHIE KOO
                          As recorded by Rick Derringer
                   (From the 1970 Album JOHNNY WINTER AND...)

Words and Music by Rick Derringer


Gtr I (E A D G B E) - 'Johnny Winter'
Gtr II (E A D G B E) - 'Rick Derringer'

 Intro
  Moderate Rock Q=100
 4/4
  Gtr I
                                         ~~
                                                         |--3--|
  E E E E E E E E   E  S      +S  E      E    +S  S  S S S S   S S S
|---5-6-5---7-8-7-|---10pb12r(10)-8----------------------------------|
|---6-6-6---8-8-8-|---------------------10---(10)---10-8-------------|
|---5-7-5---7-9-7-|-------------------------------9------8s7p==5-7p5-|
|-----------------|--------------------------------------------------|
|-----------------|--------------------------------------------------|
|-----------------|--------------------------------------------------|
|
| Gtr II
| PM--|     PM--------|                    PM     PM   PM
| E E E E E E E E   E  E          S   S  S S   S  S  S S S   E     S
|-----------------|--------------------------------------------------|
|-----------------|--------------------------------------------------|
|-----------------|-2--2-----------------2-----5-----2---0---2-------|
|-----------------|-2--2--------------2--------5-----2---0---2-------|
|---3-5-3s5-5-7-5-|-0--0----------3b4------0------0----0-----0-------|
|-1-1-1-1s3-3-3-3-|------------------------------------------------0-|


  Q   S S S S Q  Q
|----------------3---|
|-------------5--3---|
|-----5h7p5---5--4---|
|-7---------7-5--5---|
|--------------------|
|--------------------|
|
| PM--|
| E E E   S S Q  Q
|--------------------|
|-------------5--3---|
|-------------5--4---|
|-------------5--5---|
|-3-3-5---0-2-3--5---|
|-1-1-1----------3---|


                                                                          |-----3-----|
  q     Q       Q       S S E         E E     S E     S E     S S   +S  S S    +S    +S
|-5---------------------------------|----------------------------------------------------|
|-5---------------------------------|----------------------------------------------------|
|-----------------------------------|----------------------------------------------------|
|-7-----------------------7p5-------|---5b6-----5b6-----5b6-----5b6-(5)---5b6==(5)r==(5)-|
|-----------------------------------|-7-------7-------7-------7---------7----------------|
|-----------------------------------|----------------------------------------------------|
|
| e S S S S S S S S S S S S S   +S    E S   S S S   S S S   S S S    S  S S        S
|-----------------------------------|----------------------------------------------------|
|-----------------------------------|---2s==3---2s==3---2s==3---2s===3----2s=======3-----|
|-2-x-x-x-x-x-x-x-x-x-x-x-x---------|----------------------------------------------------|
|-2-x-x-x-x-x-x-x-x-x-x-x-----------|----------------------------------------------------|
|-0-x-x-x-x-x-x-x-x-x-x-------------|----------------------------------------------------|
|---------------------------3b4-(3)-|-0-------0-------0-------0---------0----------------|


  E E     S E     S E     S S   +S  S e
|----------------------------------------------||
|----------------------------------------------||
|----------------------------------------------||
|---5b6-----5b6-----5b6-----5b6-(5)---5b5.5----||
|-7-------7-------7-------7---------7----------||
|-0--------------------------------------------||
|
| E S   S S S   S S S   S S S    S  S S     S
|----------------------------------------------||
|---2s==3---2s==3---2s==3---2s===3----2s====3--||
|----------------------------------------------||
|----------------------------------------------||
|----------------------------------------------||
|-0-------0-------0-------0---------0----------||


 1st Verse
  E S S S S S S S S S S S S E
|-----------------------------|
|-----------------------------|
|---------------5-x-x-7---x-5-|
|---------------5-x-x-7---x-5-|
|---7-x-x-7-x-x-3-----5-----3-|
|-5-5-x-x-5-x-x---------------|
|
| E e   S S S S S S S S S S E
|-----------------------------|
|-----------------------------|
|---2---x-2---x-5-x-x-7---x-5-|
|---2---x-2-x-x-5-x-x-7---x-5-|
|-0-0---x---------------------|
|-----------------------------|


                      ~~~~~~~~
  E e    S    S S S S E. Q              E e S S S S S S S S S S E
|------------------------------------|-----------------------------|
|---8b10-8b10-8-5--------8b10--------|-----------------------------|
|-x---------------8-7-5--------------|--------------5-x---7---x-5--|
|-x----------------------------------|--------------5-x---7---x-5--|
|------------------------------------|-/7-7-x-7-----3---0-5-----3--|
|------------------------------------|-/5-5-x-5---x----------------|
|
| PM                  ~~~~~~~~                    PM
| E e    S    S S S S E. E    +S   S    E e S S S S S S S S S S E
|------------------------------------|-----------------------------|
|------------------------------------|-----------------------------|
|------------------------------------|--------------5-x-x-7---x-5--|
|---7----7----5----------7----(7)\---|----7-x-7-----5-x-x-7---x-5--|
|-0-------------7-6-5----------------|----7-x-7--------------------|
|---------------------8------------0-|-/5---------0----------------|


                ~~~~~
  E e S S S S S E. Q           E S S S S S S S S S S S S E
|---------------------------|------------------------------|
|---------------------------|------------------------------|
|-x-6-6-4----------6--------|----------------5-x-x-7---x-5-|
|-x-------7-6-5-------------|----------------5-x-x-7---x-5-|
|---------------7-----------|----7-x-x-7-x-x-3-----5-----3-|
|---------------------------|--5-5-x-x-5-x-x---------------|
|
| ~M            ~~                         PM
| E e S S S S S E. E +S   S    E e   S S S S S S S S S S E
|---------------------------|------------------------------|
|---------------------------|------------------------------|
|---------------------------|----------------5-x-x-7---x-5-|
|---7-7-5----------7-(7)\---|----7---x-7-----5-x-x-7---x-5-|
|---------7-6-5-------------|----7---x-7-------------------|
|-5-------------8---------0-|-/5-----------0---------------|


                      ~~~~~~~~
  E e    S    S S S S E. Q
|-------------------------------------|
|---8b10-8b10-8-5--------8b10---------|
|-x---------------8-7-5---------------|
|-x-----------------------------------|
|-------------------------------------|
|-------------------------------------|
|
| ~                   ~~
| E e    S    S S S S E. E    +S   S
|-------------------------------------|
|-------------------------------------|
|-------------------------------------|
|---7----7----5----------7----(7)\----|
|---------------7-6-5-----------------|
|-5-------------------8------------0--|


                                                             Chorus
                                             ~~~~~~
   E E S S S S S S S S S S E   E e S S S S S E. E.      S     E e e e E e e e
|----------------------------|-----------------------------||---5-6-5---7-8-7--|
|----------------------------|-----------------------------||---6-6-6---8-8-8--|
|--------------5-x---7---x-5-|-x-6-6-4----------6s=====14\-||---5-7-5---7-9-7--|
|--------------5-x---7---x-5-|-x-------7-6-5---------------||------------------|
|-/7-7-x-7-----3---0-5-----3-|---------------7-------------||------------------|
|-/5-5-x-5---x---------------|-----------------------------||------------------|
|
|                              ~             ~~               PM------------|
|  E e S S S S S S S S S S E   E e S S S S S E. E +S    S     E E E E E E E E
|----------------------------|-----------------------------||------------------|
|----------------------------|-----------------------------||------------------|
|--------------5-x-x-7---x-5-|-----------------------------||------------------|
|----7-x-7-----5-x-x-7---x-5-|---7-7-5----------7-(7)\-----||------------------|
|----7-x-7-------------------|---------7-6-5---------------||-3-3-5-3-5-5-7-5--|
|-/5---------0---------------|-5-------------8----------0--||-1-1-1-1-3-3-3-3--|


                       ~~~~~~~~~
  E  S      +S  E      E    +S  S  S S a S S S   +T  T
|---10pb12r(10)-8--------------------------------------|
|---------------------10---(10)---10-8-----------------|
|-------------------------------9------8s7-5-7b9r(7)p5-|
|------------------------------------------------------|
|------------------------------------------------------|
|------------------------------------------------------|
|
| E  E          S   S  S S   e     e     S E      S
|------------------------------------------------------|
|------------------------------------------------------|
|----------------------2-----5-----2-----0-2-----------|
|-2--2--------------2--------5-----2-----0-2-----------|
|-0--0----------3b4------0-----------------------------|
|-------------------------------------------------0----|


  Q   S S S S Q  Q    Q   a S   S S S e e S E.
|-------------3--3--|-------------5---8-5---5----|
|-------------5--3--|-----------5---5-8-5-8-5----|
|-----5h7p5---5--4--|-----5s6--------------------|
|-7---------7-------|-7--------------------------|
|-------------------|----------------------------|
|-------------------|----------------------------|
|
| E E E   S S Q  Q    E E   S   S S S e e S E  S
|-------------------|----------------------------|
|-------------5--3--|----------------------------|
|-------------5--4--|-------------2---5-2-0-2----|
|-------------5--5--|-2-2-------2-----5-2-0-2----|
|-3-3-5---0-2-3--5--|-0-0---3b4-----0------------|
|-1-1-1----------3--|--------------------------0-|


  E E E E E E E E   E E   E     E   +S  S S S S S S S       Q   Q     Q  Q
|---5-6-5---7-8-7-|---------------------------------------|-----------3--3--|
|---6-6-6---8-8-8-|-------5-------------------------------|-----------5--3--|
|---5-7-5---7-9-7-|---4b6-------2---(2)-----2-0-----------|-----------5--4--|
|-----------------|---------------------0h2-----2-0-------|--------------5--|
|-----------------|---------------------------------3b3.5-|-0---------------|
|-----------------|---------------------------------------|-----------------|
|
| PM------------|
| E E E E E E E E   E E   S   S S S  E    E   s E   S       E E E S S Q  Q
|-----------------|---------------------------------------|-----------------|
|-----------------|---------------------------------------|-----------5--3--|
|-----------------|-------------2----5----2---0-2---------|-----------5--4--|
|-----------------|-2-2-------2------5----2---0-2---------|-----------5--5--|
|-3-3-5-3-5-5-7-5-|-0-0---3b4-----0-----------------------|-3-3-5-0-2-3--5--|
|-1-1-1-1-3-3-3-3-|---------------------------------0-----|-1-1-1--------3--|


  q     Q       Q       S S E       E S   +S  S E     S E     S S   +S  S E
|-5-------------------------------|---------------------------------------------|
|-5-------------------------------|---------------------------------------------|
|---------------------------------|---------------------------------------------|
|-------------------------7p5b5.5-|---5b6-(5)---5b6-----5b6-----5b6-(5)---5b6---|
|---------------------------------|-----------7-------5-------5---------5-------|
|---------------------------------|-0-------------------------------------------|
|
| E S S S S S S S S S S S S E       E S    S  S S   S S S   S S S    S  S S   S
|---------------------------------|---------------------------------------------|
|-2---x-x-x-x-x-x-x-x-x-x---------|---2s===3----2s==3---2s==3---2s===3----2s==3-|
|-2---x-x-x-x-x-x-x-x---x---------|---------------------------------------------|
|-2---x-x-x-x-x-x-x-x-------------|---------------------------------------------|
|-0-----------------------0-------|---------------------------------------------|
|---------------------------3b3.5-|-0---------0-------0-------0---------0-------|


                                                2nd Verse
  E S   +S  S E     S E     S S   +S  S E        E S S S S S S S S S S S S E
|---------------------------------------------||--------------------------------|
|---------------------------------------------||--------------------------------|
|---------------------------------------------||---------------5-x-x-7---x-5----|
|---5b6-(5)---5b6-----5b6-----5b6-(5)---5b6---||---------------5-x-x-7---x-5----|
|-----------7-------5-------5---------5-------||---7-x-x-7-x-x-3-----5-----3----|
|-0-------------------------------------------||-5-5-x-x-5-x-x------------------|
|
| E S    S  S S   S S S   S S S    S  S S   S    E e   S S S S S S S S S S E
|---------------------------------------------||--------------------------------|
|---2s===3----2s==3---2s==3---2s===3----2s==3-||--------------------------------|
|---------------------------------------------||---2---x-2---x-5-x-x-7---x-5----|
|---------------------------------------------||---2---x-2-x-x-5-x-x-7---x-5----|
|---------------------------------------------||-0-0---x------------------------|
|-0---------0-------0-------0---------0-------||--------------------------------|


                      ~~~~~~~~
  E e    S    S S S S E. Q
|------------------------------------|
|---8b10-8b10-8-5--------8b10--------|
|-x---------------8-7-5--------------|
|-x----------------------------------|
|------------------------------------|
|------------------------------------|
|
| PM                  ~~~~~~~~
| E e    S    S S S S E. E    +S   S
|------------------------------------|
|------------------------------------|
|------------------------------------|
|---7----7----5----------7----(7)\---|
|-0-------------7-6-5----------------|
|---------------------8------------0-|


                                             ~~~~~
   E e S S S S S S S S S S E   E e S S S S S E. Q
|----------------------------|---------------------------|
|----------------------------|---------------------------|
|--------------5-x---7---x-5-|-x-6-6-4----------6--------|
|--------------5-x---7---x-5-|-x-------7-6-5-------------|
|-/7-7-x-7-----3---0-5-----3-|---------------7-----------|
|-/5-5-x-5---x---------------|---------------------------|
|
|            PM                ~M            ~~
|  E e S S S S S S S S S S E   E e S S S S S E. E +S   S
|----------------------------|---------------------------|
|----------------------------|---------------------------|
|--------------5-x-x-7---x-5-|---------------------------|
|----7-x-7-----5-x-x-7---x-5-|---7-7-5----------7-(7)\---|
|----7-x-7-------------------|---------7-6-5-------------|
|-/5---------0---------------|-5-------------8---------0-|


   E S S S S S S S S S S S S E
|------------------------------|
|------------------------------|
|----------------5-x-x-7---x-5-|
|----------------5-x-x-7---x-5-|
|----7-x-x-7-x-x-3-----5-----3-|
|--5-5-x-x-5-x-x---------------|
|
|              PM
|  E e   S S S S S S S S S S E
|------------------------------|
|------------------------------|
|----------------5-x-x-7---x-5-|
|----7---x-7-----5-x-x-7---x-5-|
|----7---x-7-------------------|
|-/5-----------0---------------|


                      ~~~~~~~~
  E e    S    S S S S E. Q              E E S S S S S S S S S S E
|------------------------------------|-----------------------------|
|---8b10-8b10-8-5--------8b10--------|-----------------------------|
|-x---------------8-7-5--------------|--------------5-x---7---x-5--|
|-x----------------------------------|--------------5-x---7---x-5--|
|------------------------------------|-/7-7-x-7-----3---0-5-----3--|
|------------------------------------|-/5-5-x-5---x----------------|
|
| ~                   ~~
| E e    S    S S S S E. E    +S   S    E e S S S S S S S S S S E
|------------------------------------|-----------------------------|
|------------------------------------|-----------------------------|
|------------------------------------|--------------5-x-x-7---x-5--|
|---7----7----5----------7----(7)\---|----7-x-7-----5-x-x-7---x-5--|
|---------------7-6-5----------------|----7-x-7--------------------|
|-5-------------------8------------0-|-/5---------0----------------|


                                Chorus
                ~~~~~~
  E E S S S S S E. E.      S       E  E  E  E  E  E  E  E
|-----------------------------||------5--6--5-----7--8--7--|
|-----------------------------||------6--6--6-----8--8--8--|
|-x-6-6-4----------6s=====14\-||------5--7--5-----7--9--7--|
|-x-------7-6-5---------------||---------------------------|
|---------------7-------------||---------------------------|
|-----------------------------||---------------------------|
|
| ~             ~~                 PM---|      PM---|
| E E S S S S S E. E +S    S       E  E  E  E  E  E  E  E
|-----------------------------||---------------------------|
|-----------------------------||---------------------------|
|-----------------------------||---------------------------|
|---7-7-5----------7-(7)\-----||-/10-10-12-10-12-12-14-12\-|
|---------7-6-5---------------||--/8--8--8--8-10-10-10-10\-|
|-5-------------8----------0--||---------------------------|


              ~
  E E   E     E   S S S S S S S S     Q   E e   Q  Q
|-----------------------------------|-----------3--3----|
|-------5---------------------------|-----------5--3----|
|---4b6-------2---------2-0---------|-----x-----5--4----|
|-------------------0h2-----2-0-----|-----x-0------5----|
|-------------------------------3b4-|-0-----------------|
|-----------------------------------|-------------------|
|
| PM|           PM  PM  PM
| e E   S   S S S S S S S S E   S     E E E S S Q  Q
|-----------------------------------|-------------------|
|-----------------------------------|-----------5--3----|
|-2-2---------2---5---2---0-2-------|-----------5--4----|
|-2-2-------2-----5---2---0-2-------|-----------5--5----|
|-0-0---3b4-----0---0---0-----------|-3-3-5-0-2-3--5----|
|-------------------------------0---|-1-1-1--------3----|


  ~
  Q   A S   S S S E E S E.     E E E E E E E E
|-------------5---8-5---5----|---5-6-5---7-8-7-|
|-----------5---5-8-5-8-5----|---6-6-6---8-8-8-|
|-----5s6-------------7------|---5-7-5---7-9-7-|
|-7--------------------------|-----------------|
|----------------------------|-----------------|
|----------------------------|-----------------|
|
|                              PM------------|
| E E   S   S S S E E S E  S   E E E E E E E E
|----------------------------|-----------------|
|----------------------------|-----------------|
|-------------2---5-2-0-2----|-----------------|
|-2-2-------2-----5-2-0-2----|-----------------|
|-0-0---3b4-----0------------|-3-3-5-3-5-5-7-5-|
|--------------------------0-|-1-1-1-1-3-3-3-3-|


                ~~~~                         ~
  E S   S E     E      S S   S S S   S S S   Q   S S e   Q  Q
|---------5--------------------------------|-------------3--3----|
|-------5-5-----8b10---------5-8-----------|-------------5--3----|
|---7b9------------------7b9-----7b8-7-5-7-|-5-------5---5--4----|
|------------------------------------------|-----5h7--------5----|
|------------------------------------------|---------------------|
|------------------------------------------|---------------------|
|
| E E     S   S S    S e     e   S   E   S   E E E   S S Q  Q
|------------------------------------------|---------------------|
|------------------------------------------|-------------5--3----|
|---------------2------5-----2---0---2-----|-------------5--4----|
|-2-2---------2--------5-----2---0---2-----|-------------5--5----|
|-0-0-----3b4--------0---------------------|-3-3-5---0-2-3--5----|
|----------------------------------------0-|-1-1-1----------3----|


  q     Q       Q       S S E       E E     S E     S E     S S   +S  S E
|-5-------------------------------|-------------------------------------------|
|-5-------------------------------|-------------------------------------------|
|---------------------------------|-------------------------------------------|
|-7-----------------------7-5b5.5-|---5b6-----5b6-----5b6-----5b6-(5)---5b6---|
|---------------------------------|-7-------7-------7-------7---------7-------|
|---------------------------------|-------------------------------------------|
|
| E S S S S S S S S S S S S E       E S   S S S   S S S   S S S    S  S S   S
|---------------------------------|-------------------------------------------|
|---------------------------------|---2s==3---2s==3---2s==3---2s===3----2s==3-|
|-2-x-x-x-x-x-x-x-x-x-x-x---------|-------------------------------------------|
|-2-x-x-x-x-x-x-x-x-x-x-x---------|-------------------------------------------|
|-0-x-x-x-x-x-x-x-x-x-x-x-0-------|-------------------------------------------|
|---------------------------3b4---|-0-------0-------0-------0---------0-------|

[ Tab from: http://www.guitartabs.cc/tabs/r/rick_derringer/rock_n_roll_hoochie_koo_tab_ver_6.html ]
                                          Guitar Solo
  E E     S E     S E     S S +S  S S S    S    S S S S S +S  +S  +E  S S T T S S     T T
|---------------------------------------||-------------------------------------------------|
|---------------------------------------||-------------------------------------------------|
|-----------------------------------5-7-||-7b9==7-7-7-7-7r(7)-(7)-(7)-5---7p5---5b5.5------|
|---5b6-----5b6-----5b6-----5-(5)-7-----||------------------------------7-----7-------7p5--|
|---------7-------7-------7-------------||-------------------------------------------------|
|-0-------------------------------------||-------------------------------------------------|
|
|                                                              PM
| E S   S S S   S S S   S S S  S  S S S    E      e   S S  S   S   e  S s S   S E
|---------------------------------------||-------------------------------------------------|
|---2s==3---2s==3---2s==3---2s=3----2s3-||-------------------------------------------------|
|---------------------------------------||--------2---x-2----------5----7-------5----------|
|---------------------------------------||--------2---x-2----------5----7-------5----------|
|---------------------------------------||-0-----------------------------------------------|
|-0-------0-------0-------0-------0-----||---------------------0------x-------x------------|


                                                ~~~~
  S S S S S S S S S S S S S T T S S   S   S S S Q          S S S T T S S T T S
|-----------------------------------|-------5--------------5-----8p5---5-8p5---|
|---------------------------8-5---5-|-----5---5-8b10---------8-5-----8-------8-|
|-------------------------------7---|-7b9--------------------------------------|
|-------7---5-----------------------|------------------------------------------|
|-7-5-7---7---7-6-5---5-------------|------------------------------------------|
|-------------------8---8-5---------|------------------------------------------|
|
|               PM                                       PM
| E   e   S S S S e   S s S S   E     E     e   S    S S S e   S s   S S E
|-----------------------------------|------------------------------------------|
|-----------------------------------|------------------------------------------|
|-----2---x-2-----5-----7-------5---|-------2---x----2-----5-----7-------5-----|
|-----2---x-2-----5-----7-------5---|-------2---x----2-----5-----7-------5-----|
|-0---------------------------------|-0----------------------------------------|
|---------------0-----x-----x-------|--------------------0-----x-------x-------|


       ~~~
  S a  E.   S S  S S s S  S  S  S      +S   S  S
|-5---------8-9-10-8-9---------------------12------|
|---8s10--------------------10-12b14==(12)----12r==|
|----------------------9s11------------------------|
|--------------------------------------------------|
|--------------------------------------------------|
|--------------------------------------------------|
|
|                  PM
| E       e S S  S S e    S  s  S       S   E
|--------------------------------------------------|
|--------------------------------------------------|
|---------2-x-2------5-------7--------------5------|
|---------2-x-2------5-------7--------------5------|
|-0------------------------------------------------|
|------------------0------x-------------x----------|


   +S   S  T  T  S  S  E       +S   S  S  S  S  T  T  S  S  S
|---------------------12b15r==(12)-10-12-------------------------|
|-(12)-10-12p10----10--------------------13-10-12p10----10-------|
|---------------11-----------------------------------11----12b14-|
|----------------------------------------------------------------|
|----------------------------------------------------------------|
|----------------------------------------------------------------|
|
|                               PM
|   E      e        S  S    S   S   e     S  s  S     S  E
|----------------------------------------------------------------|
|----------------------------------------------------------------|
|----------2--------x--2------------5--------7-----------5-------|
|----------2--------x--2------------5--------7-----------5-------|
|---0------------------------------------------------------------|
|-------------------------------0---------x-----------x----------|


    ~~~~
   +S   S  S  S     S  S  S     S  S  S     +S   S  S S S S   T   T S S S S    +S  S S S S S    S S S    S S
|---------10----------10----------10------------10----------|-------5-----8b10-(8)-8-5---5------5--------5----|
|------10----------10----------10----11b13-(11)-------------|-----5---8-5------------5-5---8b10---5-8b10-5-5--|
|-(12)-------12b14-------12b14---------------------11s5-7-5-|-7b8---------------------------------------------|
|-----------------------------------------------------------|-------------------------------------------------|
|-----------------------------------------------------------|-------------------------------------------------|
|-----------------------------------------------------------|-------------------------------------------------|
|
|                               PM                                                   PM
|   E      e        S  S  S     S  e         S   s  S S E     E       e   S     S  S S e   S    s S S    E
|-----------------------------------------------------------|-------------------------------------------------|
|-----------------------------------------------------------|-------------------------------------------------|
|----------2--------x--2-----------5-------------7------5---|---------2---x-----2------5--------7--------5----|
|----------2--------x--2-----------5-------------7------5---|---------2---x-----2------5--------7--------5----|
|---0-------------------------------------------------------|-0-----------------------------------------------|
|-------------------------------0------------x--------x-----|------------------------0-----x--------x---------|


  |-3-| |-3-| |--3--| |--3--| |-3-| |--3--| |--3--|
  S S S S S S S S   S S S   S S S S S S   S S S   S S S
|-8-5-8-5---5-------------------------------------------||
|---------8---8-5---------------------------------------||
|-------------------8-7-5---7-5-------------------------||
|-------------------------------7-5-------7-------------||
|-----------------------------------5-7-----6-5-----5---||
|-------------------------------------------------8---8-||
|
|                         PM
| E     e     S   S   S   S   e     S   s   S   S   E
|-------------------------------------------------------||
|-------------------------------------------------------||
|-------2-----x---2-----------5---------7-----------5---||
|-------2-----x---2-----------5---------7-----------5---||
|-0-----------------------------------------------------||
|-------------------------0---------x-----------x-------||


 3rd Verse
                                                      ~~~~~~~~
  S S S S S S S S S S S S S S E   E e    S    S S S S E. Q
|-------------------------------|---------------------------------------|
|-------------------------------|---8b10-8b10-8-5--------8b10-----------|
|-----------------5-x-x-7-x-x-5-|-x---------------8-7-5-----------------|
|-----------------5-x-x-7-x-x-5-|-x-------------------------------------|
|---7-7-x-x-7-x-x-3-----5-----3-|---------------------------------------|
|-5---5-x-x-5-x-x---------------|---------------------------------------|
|
|                                 PM                  ~~~~~~~~
| E   e   S S S S S S S S S S E   E e    S    S S S S E. E    +S   S
|-------------------------------|---------------------------------------|
|-------------------------------|---------------------------------------|
|-----2---x-2---x-5-x-x-7---x-5-|---------------------------------------|
|-----2---x-2-x-x-5-x-x-7---x-5-|---7----7----5----------7----(7)\------|
|-0---0---x---------------------|-0-------------7-6-5-------------------|
|-------------------------------|---------------------8------------0----|


                                               ~~~~~~
   E E S S S S S S S S S S S S   E e S S S S S E. E  E
|------------------------------|---------------------------|
|------------------------------|---------------------------|
|--0-----------5-x-x-7-x-x-----|-x-6-6-4----------6s17\----|
|--x-----------5-x-x-7-x-x-----|-x-------7-6-5-------------|
|----7-x-7---x-3-----5-----3p0-|---------------7-----------|
|----5-x-5---------------------|---------------------------|
|
|            PM                  ~M            ~~
|  E e S S S S S S S S S S E     E e S S S S S E. E +S   S
|------------------------------|---------------------------|
|------------------------------|---------------------------|
|--------------5-x-x-7---x-5---|---------------------------|
|----7-x-7-----5-x-x-7---x-5---|---7-7-5----------7-(7)\---|
|----7-x-7---------------------|---------7-6-5-------------|
|-/5---------0-----------------|-5-------------8---------0-|


   E S S S S S S S S S S S S S S
|----------------------------------|
|----------------------------------|
|----------------5-x-x-7---x-5-x---|
|----------------5-x-x-7---x-5-x---|
|----7-x-x-7-x-x-3-----5-----3-----|
|----5-x-x-5-x-x-------------------|
|
|              PM
|  E e   S S S S S S S S S S E
|----------------------------------|
|----------------------------------|
|----------------5-x-x-7---x-5-----|
|----7---x-7-----5-x-x-7---x-5-----|
|----7---x-7-----------------------|
|-/5-----------0-------------------|


                      ~~~~~~~~
  E e    S    S S S S E. Q              E S S S S S S S S S S Q
|------------------------------------|------------------------------|
|---8b10-8b10-8-5--------8b10--------|------------------------------|
|-x---------------8-7-5--------------|----------------5-x-x-7-------|
|-x----------------------------------|----------------5-x-x-7-------|
|------------------------------------|----7-x-x-7-x-x-3-----5-------|
|------------------------------------|----5-x-x-5-x-x---------------|
|
| ~                   ~~
| E e    S    S S S S E. E    +S   S    E e   S S S S S S S S S S E
|------------------------------------|------------------------------|
|------------------------------------|------------------------------|
|------------------------------------|----------------5-x-x-7---x-5-|
|---7----7----5----------7----(7)\---|----7---x-7-----5-x-x-7---x-5-|
|---------------7-6-5----------------|----7---x-7-------------------|
|-5-------------------8------------0-|-/5-----------0---------------|


  E  E     S     S  S  S  S  E.  A  E     +E
|------------------------------------------------||
|---20b22-20b22-20-17--------------20b22-(20)\---||
|---------------------20-19-17--19---------------||
|------------------------------------------------||
|------------------------------------------------||
|------------------------------------------------||
|
| ~                          ~~~
| E  e     S     S  S  S  S  E.     E     +S   S
|------------------------------------------------||
|------------------------------------------------||
|------------------------------------------------||
|----7-----7-----5------------------7-----(7)\---||
|-------------------7--6--5----------------------||
|-5--------------------------8-----------------0-||


 Chorus
                                                       ~~~~
    E  e  e  e  e  e  e  e    E S  S  S    S  E       +S   S  S  S  S     S  S  S
|------5--6--5-----7--8--7--|-------------17--------------17----------------------|
|------6--6--6-----8--8--8--|--------17------20b22---(20)----20-17----------------|
|------5--7--5-----7--9--7--|---6s18-------------------------------19b21-19-17----|
|---------------------------|--------------------------------------------------19-|
|---------------------------|-----------------------------------------------------|
|---------------------------|-----------------------------------------------------|
|
|   PM---|      PM---|
|   E  E  E  E  E  E  E  E    E E     S    S  S    S   E      E     S     E     S
|---------------------------|-----------------------------------------------------|
|---------------------------|-----------------------------------------------------|
|---------------------------|-----------------2--------5------2-----0-----2-------|
|-/10-10-12-10-12-12-14-12\-|-2-2----------2-----------5------2-----0-----2-------|
|--/8--8--8--8-10-10-10-10\-|-0-0-----3b4----------0------------------------------|
|---------------------------|---------------------------------------------------0-|


      ~~                  ~
   a  Q    Q      Q  Q    Q    S   S S S e e S E.
|-----------------3--3--|------------5---8-5---5----|
|-----------------5--3--|----------5---5-8-5-8-5----|
|---------17\-----5--4--|-----/6-------------7------|
|-17h19--------------5--|-7-------------------------|
|-----------------------|---------------------------|
|-----------------------|---------------------------|
|
|     E E  E  S S Q  Q    E E  S   S S S e e s E  S
|-----------------------|---------------------------|
|-----------------5--3--|---------------------------|
|-----------------5--4--|------------2---5-2-0-2----|
|-----------------5--5--|-2-2------2-----5-2-0-2----|
|-----3-3--5--0-2-3--5--|-0-0--3b4-----0------------|
|-----1-1--1---------3--|-------------------------0-|


                                ~~~~~~~~
  E e e e e e e E   E S S S   S E   +S   S S  S S S S   +S
|---5-6-5---7-8-7-|-----------------------------------------|
|---6-6-6---8-8-8-|-------8-----8---(8)-10-8----------------|
|---5-7-5---7-9-7-|---7s9-----9--------------10-8-7-5b7-(5)-|
|-----------------|-----------------------------------------|
|-----------------|-----------------------------------------|
|-----------------|-----------------------------------------|
|
| PM------------|
| E E E E E E E E   E E   S   S S S  E     E    S E      S
|-----------------|-----------------------------------------|
|-----------------|-----------------------------------------|
|-----------------|-------------2----5-----2----0-2---------|
|-----------------|-2-2-------2------5-----2----0-2---------|
|-3-3-5-3-5-5-7-5-|-0-0---3b4-----0-------------------------|
|-1-1-1-1-3-3-3-3-|--------------------------------------0--|


  ~~
  E.   S Q     Q  Q
|--------------3--3--|
|--------------5--3--|
|-5s==15-------5--4--|
|-----------------5--|
|--------------------|
|--------------------|
|
| E E    E S S Q  Q
|--------------------|
|--------------5--3--|
|--------------5--4--|
|--------------5--5--|
|-3-3----5-0-2-3--5--|
|-1-1----1--------3--|


  ~~
  q    Q       Q         E  E    E E E E E E E E
|------------------------------|---5-6-5---7-8-7-|
|---------------------------x\-|---6-6-6---8-8-8-|
|---------------------------x\-|---5-7-5---7-9-7-|
|-7-------------------------x\-|-----------------|
|------------------------------|-----------------|
|------------------------------|-----------------|
|
|                                PM---------------
| E. S S S S S S S S S   Q       E E E E E E E E
|------------------------------|-----------------|
|------------------------------|-----------------|
|-2--x-x-x-x-x-x-x-x-0---------|-----------------|
|-2--x-x-x-x-x-x-x-x-0-/10\----|-----------------|
|-0--x-x-x-x-x-x-x-x---/10\----|-3-3-5-3-5-5-7-5-|
|------------------------------|-1-1-1-1-3-3-3-3-|


                       ~~~
                                      |----3----|
  E S   S S   a S S S  E.     S a S S S   +S    S
|---------5---------8---------8-------------------|
|-------5---------8---10--------------------------|
|---7b9-------7s9---------------9s7-5-7b9r(7)p==5-|
|-------------------------------------------------|
|-------------------------------------------------|
|-------------------------------------------------|
|
|---|               PM    PM  PM
| e E     S     S S S  S  S S S   S E         S
|-------------------------------------------------|
|-------------------------------------------------|
|-2-2-------------2----5----2-----0-2-------------|
|-2-2-----------2------5----2-----0-2-------------|
|-0-0-----3b4-------0-----0---0-----0-------------|
|---------------------------------------------0---|


  ~                   ~
  Q   S S S S Q  Q    Q   a S   S S  S  e e S   S S S
|-------------3--3--|-------------5-(5)-8-5-----------|
|-------------5--3--|-----------5----5--8-5-----------|
|-----5h7p5---5--4--|-----5s6---------------7b9-7-5---|
|-7---------0----5--|-7-----------------------------7-|
|-------------------|---------------------------------|
|-------------------|---------------------------------|
|
| E E E   S S Q  Q    E E   S   S S  S  e e S   E   S
|-------------------|---------------------------------|
|-------------5--3--|---------------------------------|
|-------------5--4--|-------------2-----5-2-0---2-----|
|-------------5--5--|-2-2-------2-------5-2-0---2-----|
|-3-3-5---0-2-3--5--|-0-0---3b4------0----------------|
|-1-1-1----------3--|-------------------------------0-|


    ~~~~~~                  ~
  a Q   Q     E.   S e  E   Q   a S   S S S E E S    E.
|----------------------15-|-------------5---8-5------5------|
|----------------------15-|-----------5---5-8-5-8b10-5------|
|-----------/11\---5sx----|-----5s6-------------------------|
|-5h7---7-----------------|-7-------------------------------|
|-------------------------|---------------------------------|
|-------------------------|---------------------------------|
|
|   PM-----------------|
|   E E E E   E  E   E  E   E E   S   S S S E E S    E  S
|-------------------------|---------------------------------|
|-------------------------|---------------------------------|
|-------------------------|-------------2---5-2-0----2------|
|-------------------------|-2-2-------2-----5-2-0----2------|
|---3-3-5-3---5--5---7--5-|-0-0---3b4-----0-----------------|
|---1-1-1-1---3--3---3--3-|-----------------------------0---|


                    ~
  E E Q     Q  Q    Q   A S   S S  S  E E S E.     E E E E   Q  E E
|-----------3--3--|-------------5-(5)-8-5---5----|---5-6-5----------|
|-----1-----5--3--|-----------5----5--8-5-8-5----|---6-6-6------5p3-|
|-----2-----5--4--|-----5s6---------------7------|-0-5-7-5------5p4-|
|-----3--------5--|-7----------------------------|------------------|
|-3-3-------------|------------------------------|------------------|
|-1-1-------------|------------------------------|------------------|
|
| E E E S S Q  Q    E E   S   S S  S  e e S E  S   E E E S S Q  Q
|-----------------|------------------------------|------------------|
|-----------5--3--|------------------------------|-----------5--3---|
|-----------5--4--|-------------2-----5-2-0-2----|-----------5--4---|
|-----------5--5--|-2-2-------2-------5-2-0-2----|-----------5--5---|
|-3-3-5-0-2-3--5--|-0-0---3b4------0-------------|-3-3-5-0-2-3--5---|
|-1-1-1--------3--|----------------------------0-|-1-1-1--------3---|


  E E A S   S S S E E S E.     E E E E   Q  Q
|-------------5---8-5---5----|---5-6-5------3--|
|-----------5---5-8-5-8-5----|---6-6-6------3--|
|-----5s6-------------7------|-x-5-7-5---5--4--|
|-x-7------------------------|-x---------------|
|----------------------------|-----------------|
|----------------------------|-----------------|
|
| E E   S   S S S e e S E  S   E E E S S Q  Q
|----------------------------|-----------------|
|----------------------------|-----------5--3--|
|-------------2---5-2-0-2----|-----------5--4--|
|-2-2-------2-----5-2-0-2----|-----------5--5--|
|-0-0---3b4-----0------------|-3-3-5-0-2-3--5--|
|--------------------------0-|-1-1-1--------3--|


  ~
  Q   a S   S S  S  e E a S E.
|-------------5-(5)---5-----5-----|
|-----------5----5--8-5-----5-----|
|-----5s6---------------7s8-------|
|-7-------------------------------|
|---------------------------------|
|---------------------------------|
|
| E E   S   S S  S  e e   S S  E
|---------------------------------|
|---------------------------------|
|-------------2-----5-2---0-2-----|
|-2-2-------2-------5-2---0-2-----|
|-0-0---3b4------0----------------|
|---------------------------------|


               Free Time
                                |----6----| |----6----|
  Q  Q  Q  Q    a S S S S S S E S S S S S S S S S S S S   S S E H         Q
|-1-----3-----|-----------------------------------------:---------------------*|
|-1-----3-----|-----------------------------------------:---------------------*|
|-2-----4-----|-0h2p0h2p0h2p0-------0-----------0-------:-------5tr6------5/--*|
|-3-----5-----|-----------------------1p0---0h2---1p0---:-0-------------------*|
|-------------|---------------0-0h2-------3-----------3-:---3p0---------0-----*|
|-------------|-----------------------------------------:---------------------*|
|                                                         Q     Q     E E Q
|
|                               TP                        TP
| Q  Q  Q  Q      H             H                         H           Q   Q
|-1-----3-----|-----------------------------------------:---------------------*|
|-1-----3-----|-----------------------------------------:---------------------*|
|-2-----4-----|---2-------------2-----------------------:-2-----------2-------*|
|-3-----5-----|---2-------------2-----------------------:-2-----------2-------*|
|-3-----5-----|---4-------------4-----------------------:-4-----------4-------*|
|-1-----3-----|-----------------------------------------:---------------------*|


Duration Legend
---------------
W - whole; H - half; Q - quarter; E - 8th; S - 16th; T - 32nd; X - 64th; a - acciaccatura
+ - note tied to previous; . - note dotted; .. - note double dotted
Uncapitalized letters represent notes that are staccato (1/2 duration)
Irregular groupings are notated above the duration line
Duration letters will always appear directly above the note/fret number it represents the
duration for.  Duration letters with no fret number below them represent rests.  Multi-
bar rests are notated in the form Wxn, where n is the number of bars to rest for.  Low
melody durations appear below the staff

Tablature Legend
----------------
 h   - hammer-on
 p   - pull-off
 b   - bend
 pb  - pre-bend
 r   - bend release (if no number after the r, then release immediately)
 /\  - slide into or out of (from/to "nowhere")
 s   - legato slide
 S   - shift slide
  - natural harmonic
[n]  - artificial harmonic
n(n) - tapped harmonic
 ~   - vibrato
 tr  - trill
 T   - tap
 TP  - trem. picking
 PM  - palm muting
\n/  - tremolo bar dip; n = amount to dip
 \n  - tremolo bar down
 n/  - tremolo bar up
/n\  - tremolo bar inverted dip
 =   - hold bend; also acts as connecting device for hammers/pulls
 <>  - volume swell (louder/softer)
 x   - on rhythm slash represents muted slash
 o   - on rhythm slash represents single note slash

Misc Legend
-----------
 |  - bar
||  - double bar
||o - repeat start
o|| - repeat end
*|  - double bar (ending)
 :  - bar (freetime)
 $  - Segno
 &  - Coda
Tempo markers -  = BPM(8/16=s8/s16), where s8 = swing 8ths, s16 = swing 16ths
Comments