Rick Derringer - Rock N Roll Hoochie Koo Chords & Tabs

 

Rock N Roll Hoochie Koo Chords & Tabs

Rick Derringer Chords & Tabs

Version: 5 Type: Tab 0 ratings
1 star 2 stars 3 stars 4 stars 5 stars
comments

Rock N Roll Hoochie Koo Tab

This is basically the whole song except the solo.

While playing this song here are some tips:

1.) Dont try to think about camels.

2.) Dont think if your itchy or not.

3.) If you grab turkeys by the legs and flip them over really fast they faint.

....Well anyhoo HERE IS AN AWESUM TAB.. brought to you by the danman.

Intro:

E)---------------------------------------------------------------|
B)---------------------------------------------------------------|
G)-----------------------------2-----------5---2---0--2----------|
D)---3--3--5--3---5--5--7--5---2------2----5---2---0--2----------|
A)---3--3--5--3---5--5--7--5---0--3-4---0----0---0---------------|
E)---------------------------------------------------------------|

E)---------------------------------------------------------------|
B)---------------------------------------------------------------|
G)------------------------------6/7--6/7--6/7--6/7--6/7----------|
D)---------5---------------2-------------------------------------|
A)---3--3--3--5--7----0----2----4/5--4/5--4/5--4/5--4/5----------|
E)---1--1-----3--5------3b---------------------------------------|

E)---------------------------------------------------------------|
B)---------------------------------------------------------------|
G)---6/7--6/7--6/7--6/7----2--2---2--5--7--5---------------------|
D)-------------------------2--2---2--5--7--5----7-7-5----------7-|
A)---4/5--4/5--4/5--4/5----0--------------------------7-6-5------|
E)--------------------------------------------5-------------8b---|
[ Tab from: http://www.guitartabs.cc/tabs/r/rick_derringer/rock_n_roll_hoochie_koo_tab_ver_5.html ]
E)---------------------------------------------------------------|
B)---------------------------------------------------------------|
G)----------------2--2---------5-2-0-2---------------------------|
D)----------------2--2-----2-------0-2---------------------------|
A)---3--3---5--5--0----3-4---0-----------------------------------|
E)---1--1---3--3-------------------------------------------------|


While looking at this tab you might think of such thing as, "why is this such a wicked 
and "the guy who made this must be really cool"

If you have any questions or comments I dont really care.
Im not putting the rest of the tab cause its gonna take too much time.
You can e-mail me at cheese_man330@hotmail.com.
I will probally not e-mail you back.
Actucally, I will most definitly not e-mail you back.
Feel free to send me money or other things of value.

Anyway, Here are the lyrics.


I couldn't stop movin' when it first took hold,

It was a warm spring night at the old town hall,

There was a group called The Jokers, they were layin' it down,

Doncha know I'm never gonna lose that funky sound.

Rock 'n' Roll, Hoochie Koo,

Lawdy mama light my fuse,

Rock 'n' Roll, Hoochie Koo,

Truck on out and spread the news.

Squitas start buzzin bout this time of year,

Im goin' 'round back, said she'd meet me there,

We were rollin' in the grass growin' behind the barn,

Well my head started ringin' like a fire alarm.

Rock 'n' Roll, Hoochie Koo,

Lawdy mama light my fuse,

Rock 'n' Roll, Hoochie Koo,

Truck on out and spread the news.

I hope ya'll know what I'm talkin' about,

The way they wiggle that thing, it really knocks me out,

Gettin' high all the time, hope ya all are too,

Come on a little closer, gonna do it to you.

Rock 'n' Roll, Hoochie Koo,

Lawdy mama light my fuse,

Rock 'n' Roll, Hoochie Koo,

Truck on out and spread the news.

That im tired of payin' dues,

Done said goodbye to all my blues,

Lawdy mama, light my fuse.

Well thats my tab and my lyrics so e-mail me if u want to. and vote for it too. IT'S A 
SONG!!!

                                   *.Danman.*
Comments