Rick Derringer - Rock N Roll Hoochie Koo Chords & Tabs

 

Rock N Roll Hoochie Koo Chords & Tabs

Rick Derringer Chords & Tabs

Version: 4 Type: Tab 0 ratings
1 star 2 stars 3 stars 4 stars 5 stars
comments

Rock N Roll Hoochie Koo Tab

   
-------------------------------------------------------------------------------
		    Rock And Roll Hoochie Koo - Rick Derringer
-------------------------------------------------------------------------------

Tabbed by: Grant Smith
Email: Bulletproof__Cupid@hotmail.com

Tuning: Standard


| /  slide up
| \  slide down
| h  hammer-on
| p  pull-off
| ~  vibrato
| +  harmonic
| x  Mute note
| ^  Half Bend
| >  Quarter Bend

Guitar 1: Johny Winter (lead)
e|----5--6--5----7--8--7-|-10^===(10)--8--------------------------|
B|----6--6--6----8--8--8-|---------------10--------10-8-----------|
G|----5--7--5----7--9--7-|-----------------------9------8p7p5-7p5-|
D|-----------------------|----------------------------------------|
A|-----------------------|----------------------------------------|
E|-----------------------|----------------------------------------|

Guitar 2: Rick Derringer (Rythm)
e|-----------------------|----------------------------------------|
B|-----------------------|----------------------------------------|
G|-----------------------|-2--2----------2-----5----2----0----2---|
D|-----------------------|-2--2--------2-------5----2----0----2---|
A|----3--5--3-/--5--7--5-|-0--0-----3^------0----0----0------0----|
E|-1--1--1--1-/--3--3--3-|--------------------------------------0~|
[ Tab from: http://www.guitartabs.cc/tabs/r/rick_derringer/rock_n_roll_hoochie_koo_tab_ver_4.html ]
Guitar 1: Johny Winter 
e|---------------------3-|-5~-------------------------------------|
B|-------------------5-3-|-5~-------------------------------------|
G|-------------------5-4-|-7~-------------------------------------|
D|-7------5h-7p-5----5-5-|--------------------------------7p-5----|
A|----------------7------|----------------------------------------|
E|-----------------------|----------------------------------------|

Guitar 2: Rick Derringer 
e|---------------------3-|----------------------------------------|
B|-------------------5-3-|----------------------------------------|
G|-------------------5-4-|-2------x-x-x-x-x-x-x-x-x-x-x-x-x-------|
D|-------------------5-5-|-0------x-x-x-x-x-x-x-x-x-x-x-x-x-------|
A|-3--3--5------0-2--3-5-|-0------x-x-x-x-x-x-x-x-x-x-x-x-x-------|
E|-1--1--1-------------3-|----------------------------------3^----|

Guitar 1: Johny Winter
e|-------------------------------|--------------------------------|
B|-------------------------------|--------------------------------|
G|-------------------------------|--------------------------------|
D|--5^----5^----5^----5^----5^(5)|---5^----5^----5^----5^----5>---|
A|-7-----7-----7-----7-----7-----|--7-----7-----7-----7-----7-----|
E|-------------------------------|--0-----------------------------|

Guitar 2: Rick Derringer
e|-------------------------------|--------------------------------|
B|-------------------------------|--------------------------------|
G|---6h7---6h7---6h7---6h7---6h7-|---6h7---6h7---6h7---6h7---6h7--|
D|-------------------------------|--------------------------------|
A|-------------------------------|--------------------------------|
E|-0-----0-----0-----0-----0-----|-0-----0----0-----0------0------|


===============================================================================
Comments