Richie Sambora - Undiscovered Soul Chords & Tabs

 

Undiscovered Soul Chords & Tabs

Richie Sambora Chords & Tabs

Version: 2 Type: Tab 0 ratings
1 star 2 stars 3 stars 4 stars 5 stars
comments

Undiscovered Soul Tab

   
#----------------------------------PLEASE NOTE--------------------------------#
#This file is the author's own work and represents their interpretation of the#
#song. You may only use this file for private study, scholarship, or research.#
#-----------------------------------------------------------------------------#

From: DJones2049 
Date: Sat, 14 Mar 1998 21:59:04 EST
Subject: s/sambora_richie/undiscovered_soul_album.crd

TAB and Chords to Richie Samboras New album "Undiscovered Soul"

Made In America
Richie Sambora
(R.Sambora/R.Supa)
Transcribed By TROOBIX

C	-	x32010
Cadd9	-	x32033
G	-	320033
D	-	xx0232
G/F#	-	220033
Em	-	022000
Am	-	x02210

Most of this song is repeated so I will just include the main bits


INTRO:    C	G	C	G	D	x2

[G] [Cadd9] [C] [D] repeat these chords

Verse
[G] Made in [Cadd9] America [C] Nineteen Fifty [D] Nine
Born Down by the factories and the border city line
Raised on radio just a jukebox kid
I was alright

Just a small town homeboy with big time dreams
Following his conscience in a world full of extreams
Fresh outta high school only seventeen
I was alright


-------------------------|----------------------------|
-------------------------|----------------------------|
-------------------------|----------------------------|
---------5---------------|-----------5--4--0----------|
--3--5-------------------|--0--2--3-------------------|
------------3------------|--------------------3--2--0-|


[Am] Blinded by my vision [D] there was no turning back
Like a [G] runnaway [G/f#] train life was [Em] steaming down the track

[Am] You'd say I'd never make it out but i [D] kept on hanging on
Every [F] night I prayed to jesus and held my [D] head up strong

Chous chords are the same as verse

I was alright I landed on my feet
made in america
I was brought up on the street
my old mans independance seedmed good enough for me
i was made in america Made in America

Never cared much about politics till I was twenty one
But when I woke up when Lennon found the wrong end of a gun
He left his insperation before he said goodbye
And we were alright

We all lose our innocence, its impossible to hold
I didn't know it then I had a pocket full of gold

When I kissed thoses younger days goodbye
It almost broke my heart
I was going through my growing pains i was driving in the dark

But I was alright I landed on my feet
made in america I was brought up on the street
I'm facing up to freedom and chasing down my dream
i was made in america Yeah Made in America

Yeah We all lose our innocence, its impossible to hold
I didn't know it then I had a pocket full of gold

When they said I'd never make it i just kept on hanging on
And Every night I prayed to jeasus and held my head up strong

And I was alright I landed on my feet
made in america I was brought up on the street
Facing up to who I am chasing down my dream
i was made in america Yeah I was Made in America
Made in America

Troobix 1998
-----------------------------------------------------------------
Hard Times Come Easy
Richie Sambora
(R.Sambora/R.Supa)
Transcribed By TROOBIX

B	-	x24442
E	-	x32033
F#	-	320033
G#m	-	xx0232

Most of this song is repeated so I will just include the main bits


INTRO + Outro:  B	E	F#	B	E	F#	X2

Verse:	E	B	E	B

Bridge: It might be an idea to arpeggio this bit
		G#m	F#	E
		G#m	F#	E	F#

Chorus:		B	E	F#	X3


Troobix 1998
-----------------------------------------------------------------
Fallen From Graceland
Richie Sambora
(R.Sambora/R.Supa/D.Bryan)
Transcribed By TROOBIX

A	-	x02220
E7	-	020100
D	-	XX0232
E	-	022100
F#m	-	244222

Most of this song is repeated so I will just include the main bits


INTRO:  A	E7	D	E	x2

Verse:	A	D	A	D	X2

Bridge:
	F#m	E	A	D	A	E

Chorus:		A	E	D	E	A	E	D	AE

Quitet bit:	F#m	E	A	F#m	E	A

Chords for solo:	A	D	A	D

Chords at the end:	A	E	D	E


Troobix 1998
-----------------------------------------------------------------
If God were a Woman
Richie Sambora
(R.Sambora/R.Supa/D.Bryan)
Transcribed By TROOBIX

E	-	022100
A	-	X02220
B	-	X24440
Bsus4	-	X24450
D	-	XX0232

Most of this song is repeated so I will just include the main bits

MAIN RIFF
-------------------------|-------------------------------------|
-------------------------|-------------------------------------|
-------------------------|-------------------------------------|
--------------0----------|---0---------------------------------|
---------2---------------|-------2-/S-1------------------------|
-0-/S-4------------------|----------------3bend down------0----|


INTRO:  E	A	B	Bsus4	B	RIFF	X2

Verse:	E	A	B	E	A	E THEN BEND G AS ON THE RIFF	X4

Chorus:
	B	A	E	RIFF	X2


THE CHORDS FOR THE SOLO ARE THE SAME AS THE VERSE

Troobix 1998
-----------------------------------------------------------------
All that Really Matters
Richie Sambora
(R.Sambora/R.Supa)
Transcribed By TROOBIX

C	-	x32010
G	-	320022
F	-	133200
Em	-	022000
D	-	XX0232
D#	-	X65343
Bm	-	X24232
Dsus4	-	XX0233
EmMaj7	-	021000
Em7	-	020000


This is really a piano song but this is what I got I think it is close

Most of this song is repeated so I will just include the main bits

PIANO RIFF
-------------------------|
-------------------------|
------------0------------|
--------0----------------|
--2--3-------------------|
-------------------------|


INTRO:  C	G	F	Em	D

Verse:	C	G	C	G	RIFF	C	F	Em	G	X2


Chorus:
	G	Bm	C	G
	G	Bm	C	D	Em
	G	Bm	C	D	Em	Dsus4	D
	<> IS NOT PLAYED WHEN THE BRIDGE IS PLAYED

Bridge:
	C	G	Bm	Em	EmMaj7	Em7
	C	D	D#	G	Em	F	D	C

THE SLOW RIFF THAT GOES OVER THAT IS SOMETHING LIKE
[ Tab from: http://www.guitartabs.cc/tabs/r/richie_sambora/undiscovered_soul_tab_ver_2.html ]
-------------------------|----------------------------|
-------------------------|----------------------------|
---0---------------------|----------------------------|
--------4--2---1----0----|------0----1------0---------|
-------------------------|---3------------------------|
-------------------------|----------------------------|


THE CHORDS FOR THE SOLO ARE THE SAME AS THE VERSE

Troobix 1998
-----------------------------------------------------------------
You're Not Alone
Richie Sambora
(R.Sambora/T.Marolda)
Transcribed By TROOBIX

C	-	X32010
G	-	320022
F	-	133211
E	-	022100
D#	-	X65343
Am	-	X02210
A#m	-	688666

Most of this song is repeated so I will just include the main bits

Intro Riff
------0------------------|----------------------------|
--------1--------3-------|---------1------------------|
---0---------3-------3---|-----1------1--1--/s--3-----|
-------------------------|----------------------------|
3---------1--------------|--3-------------------------|
-------------------------|----------------------------|

Drum Bit

Intro Chords + Solo:	C	F	Am	C	X2
-------------------------|----------------------------|----------------------------|
-------------------------|----------------------------|----------------------------|
-11bu12bd11----9---10----|------7-----9-7-------------|-7------9--7----------------|
----------------------10-|-7-10---10------7-10-7-10---|----10----------------------|
-------------------------|----------------------------|----------------------------|
-------------------------|----------------------------|----------------------------|

Verse:	G	C	F	G	C	F
	C	F	E	Am	F	G


Chorus:
	C	F	Am	C (THIS CHORD IS NOT RIGHT)
	C	F	Am	E
	Am	G	F	E
	G	C

Bridge:
	D#	A#m	F	C
	D#	A#m	F	G


Troobix 1998
-----------------------------------------------------------------
In It For Love
Richie Sambora
(R.Sambora/R.Supa)
Transcribed By TROOBIX

A	-	x02220
Asus4	-	x02230
D	-	xx0232
E	-	022100
F#m	-	244222
G	-	320033
B	-	x24442


Most of this song is repeated so I will just include the main bits


Verse:	A	G	A	G


Chorus:	F#m	A	Asus4	A	Asus4	G	F#m	A

Bit inbetween chorus and verse:	A	G	F#m

Middle 8:	D	E	F#m	B	D


Troobix 1998
-----------------------------------------------------------------
Harlem Rain
Richie Sambora
(R.Sambora/R.Supa)
Transcribed By TROOBIX

A	-	x02220
D	-	xx0232
Em7	-	022030
F#m	-	244222
G	-	320033
D/F#	-	xx4232
Bm	-	x24432


Most of this song is repeated so I will just include the main bits


Verse:	D	G	D	G	D	Em7	F#m	G	A 	D

Chorus:	Bm	A	G	D	Bm	A	G	D
	D	D/F#	G	A	Bm	A	G	A	D


Troobix 1998
-----------------------------------------------------------------
Who I am
Richie Sambora
(R.Sambora/M.Frederiksen)
Transcribed By TROOBIX

C	-	X32010
G	-	320022
G	-	220022
F#m	-	244222
Em	-	022000
A	-	X02220
D	-	xx0232

Most of this song is repeated so I will just include the main bits

Intro:
	Em	C	D	Em	X2

Verse:	Em	C	D	X2
	A	C	G	G/F#	A	C	D

Chorus:
	Em	F#m	G	C	D	X2
	Em	C	Em	C	A	Em

Bridge:
	A	Em	C (sometimes A quick G is added here)	D	Em


Troobix 1998
-----------------------------------------------------------------
Downside of Love
Richie Sambora
(R.Sambora/R.Supa/D.Bryan)
Transcribed By TROOBIX

A	-	x02220
D	-	XX0232
E	-	022100
F#m	-	244222
Bb7	-	x13131
G	-	320033
D/C#	-	x40232
C	-	x32010
Bm	-	x24432


Most of this song is repeated so I will just include the main bits


INTRO:  A	E	F#m	D	E

Verse:	A	E	F#m	D
	A	E	F#m	D


Bridge:
	G	Bm	G	Bm	G	Bm
	Bb7	C

Chorus:		D	D/C#	Bm	G
		Bb7	C			X2
		D	E

Middle 8:	F		Bb7
		F		C
		C/C#	Dm	C	Bm	G	Bb7	A

Solo over chorus chords

Troobix 1998
-----------------------------------------------------------------
Undiscovered Soul
Richie Sambora
(R.Sambora/R.Supa)
Transcribed By TROOBIX

F#m	-	244222
E	-	022100
A	-	X02220
D	-	xx0232
B	-	x24442
C#m	-	x46654

Most of this song is repeated so I will just include the main bits

Intro:
	E	A	C#m	B	A
	E	A	F#m	A	E

Verse:	E	A	C#m	B	A
	E	A	F#m	A	E

Chorus:
	E	A	F#m	A	E
	E	A	F#m	A	C#m	B	A

Solo is played over the verse chords

To Finish:
	E	A	F#m	A	E


Troobix 1998
-----------------------------------------------------------------
Undiscovered Soul
Richie Sambora
(R.Sambora/R.Supa)
Transcribed By TROOBIX

F#m	-	244222
E	-	022100
A	-	X02220
D	-	xx0232
B	-	x24442
C#m	-	x46654

Most of this song is repeated so I will just include the main bits

Intro:
	E	A	C#m	B	A
	E	A	F#m	A	E

Verse:	E	A	C#m	B	A
	E	A	F#m	A	E

Chorus:
	E	A	F#m	A	E
	E	A	F#m	A	C#m	B	A

Solo is played over the verse chords

To Finish:
	E	A	F#m	A	E


Transcriptions by:  Mark (Troobix) Chadwick 14/3/98

troobie@hotmail.com

#----------------------------------PLEASE NOTE--------------------------------#
#This file is the author's own work and represents their interpretation of the#
#song. You may only use this file for private study, scholarship, or research.#
#-----------------------------------------------------------------------------#
Comments